Oops, an error
Loading. Please wait.

Levántate Y Camina Tab

8 views 1 this week
no commentswrite comment
1 2 3 4 5
3 more votes to show rating
add to favorites
launch autoscroll
font size
0
reset
how to read this tab
guitar tuner
×
Best way to learn
"Levántate Y Camina"
Autoscroll
slow
fast
+/-
esc
set tempo
stop
A ver si contestan con migo!!!

e----------------------------------------------------------------
b----------------------------------------------------------------
g-----------------------9v--7v-----------------------------------
d-----------7-7-7---7-----------------10-9-10-9---7-7------------
a--7---10---------------------------------------------------7v---
e-------------------------------------------------------10-------

e----------------------------------------------------------------
b----------------------------------------------------------------
g-----------------------9v--7v-----------------------------------
d-----------7-7-7---7-----------------10/9-10/9---7v-------------
a--7---10--------------------------------------------------------
e----------------------------------------------------------------

Ariba!!!

   LAm                SOL        LAm       SOL
LEVANTATE Y CAMINA HO... DALE AMOR A LOS NIÑOS
      LAm               SOL                  LAm  SOL
TUS RAICES TUS RAICES HO... SON SIEMPRE LAS MISMAS
  LAm                SOL        LAm      SOL
LEVANTATE Y CAMINA HO... SIN PRECION HERMANO
 LAm                    SOL           LAm   SOL
TUS RAICES TUS RAICES HO... SENTITE HUMANO

  REm             LAm                  REm
CUANTO PASO Y SEGUIMOS SIEMPRE IGUAL
                      LAm                    REm
ES ESTE DIOS O UN PRELUDIO DE LO QUE VENDRA
                    LAm                REm
ES LA RAZON DE LA MENTIRA Y LA VERDAD
                LAm              SOL
DANDO AMOR LAS COSAS DE GOLPE EMPIESAN A CAMBIAR

LEVANTATE Y CAMINO HO... DALE AMOR A LOS NIÑOS
TUS RAICES TUS RAICES HO... SON SIEMPRE LAS MISMAS
LEVANTATE Y CAMINA HO... SIN PRECION HERMANO
TUS RAICES TUS RAICES HO... SENTITE HUMANO

CUANTO PASO Y SEGUIMOS SIEMPRE IGUAL
ES ESTE DIOS O UN PRELUDIO DE LO QUE VENDRA
ES LA RAZON DE LA MENTIRA Y LA VERDAD
DANDO AMOR LAS COSAS DE GOLPE EMPIESAN A CAMBIAR

LEVANTATE Y CAMINA HO... DALE AMOR ALOS NIÑOS
TUS RAICES TUS RAICES HO... SON SIEMPRE LAS MISMAS
LEVANTATE Y CAMINA HO... SIN PRECION HERMANO
TUS RAICES TUS RAICES HO... SENTITE HUMANO

base del punteo (lamx2 - solx2)

e--------------------------------------------------------
b--------------------------------------------------------
g-------------------7----------9-9-9---7-7---------------
d----7-7---7---7-10---10v--------------------10-10v------
a--------------------------------------------------------
e--------------------------------------------------------

e-------8---10b12-12---10-10d8----8-8--------------------
b----10------------------------10-----10---8v------------
g--------------------------------------------------------
d--------------------------------------------------------
a--------------------------------------------------------
e--------------------------------------------------------

e--------------------------------------------------------
b--------------------------------------------------------
g----9L7-9---7L5-7---5L4---5L4---------------------------
d--------------------------------5-----------------------
a------------------------------------7-------------------
e--------------------------------------------------------

e---------8---10b12-12---10b12-12---10b12-12---10b12-12----
b----10----------------------------------------------------
g----------------------------------------------------------
d----------------------------------------------------------
a----------------------------------------------------------
e----------------------------------------------------------

e-----10-8--------8---10b12d10---10d8-10d8-----------------
b------------10----------------------------10-8v-----------
g----------------------------------------------------------
d----------------------------------------------------------
a----------------------------------------------------------
e----------------------------------------------------------

e-------------------------------------------------8b10d8---------
b--8---5-------5-------------------------8---10------------108v--
g----------7-------7---5-------5---7b9---------------------------
d--------------------------7-------------------------------------
a----------------------------------------------------------------
e----------------------------------------------------------------

CUANTO PASO Y SEGUIMOS SIEMPRE IGUAL
ES ESTE DIOS O UN PRELUDIO DE LO QUE VENDRA
ES LA RAZON DE LA MENTIRA Y LA VERDAD
DANDO AMOR LAS COSAS DE GOLPE EMPIESAN A CAMBIAR

LEVANTATE Y CAMINA HO... DALE AMOR ALOS NIÑOS
TUS RAICES TUS RAICES HO... SON SIEMPRE LAS MISMAS
LEVANTATE Y CAMINA HO... SIN PRECION HERMANO
TUS RAICES TUS RAICES HO... SENTITE HUMANO

LEVANTATE Y CAMINA HO...
LEVANTATE Y CAMINA HO...
LEVANTATE Y CAMINA HO...
LEVANTATE Y CAMINA HO...

ESPERO QUE LES GUSTE!!!
Suggest correction
Give kudos to tab author, rate the tab!
1 2 3 4 5
comments
print report bad tab
guest
You may want to rate the tab now too:
select rating
Wanna post a correction for this tab? Suggest correction