Oops, an error
Loading. Please wait.

Déjame Danzar En El Fuego Tab

8 views 1 this week
no commentswrite comment
1 2 3 4 5
3 more votes to show rating
add to favorites
launch autoscroll
font size
0
reset
how to read this tab
guitar tuner
×
Best way to learn
"Déjame Danzar En El Fuego"
Autoscroll
slow
fast
+/-
esc
set tempo
stop
Aqui va este temazo de sinergia
uno de los mejores

INTRO:

E--------------------------------------|
B--------------------------------------|
G--------------------------------------|
D--------------------------------------|
A-2-2-2--2-2-2-2-2--2-2-2--2-2-2-2-2-0-|
E-4-4-4--4-4-4-4-4--4-4-4--4-4-4-4-4-2-|


Aqui la guitarra puede hacer esto:
E-2-2-0-----0-
B-------2-2---
D-------------
A-------------
E-------------

Desde el norte se viene sonando
soplando melodias transparentes
musica de un rojo paraiso
humedo ardiente alusinante

que bakan E--------------------------------------|
          B--------------------------------------|
          G--------------------------------------|
          D--------------------------------------|
          A-2-2-2--2-2-2-2-2--2-2-2--2-2-2-2-2-0-|
          E-4-4-4--4-4-4-4-4--4-4-4--4-4-4-4-4-2-|


la vibracion E--------------------------------------|
             B--------------------------------------|
             G--------------------------------------|
             D--------------------------------------|
             A-2-2-2--2-2-2-2-2--2-2-2--2-2-2-2-2-0-|
             E-4-4-4--4-4-4-4-4--4-4-4--4-4-4-4-4-2-|


E-------------------|
B-------------------
G-------------------
D---------------3-2-|
A-4-3-0-3-0-3-0-----|  X 4
E-------------------|

Coro:
E-5-5-3---3------------
B-------5--------3-5-3-
G------------4-4------- (se repite en todo el coro)
D----------------------
A----------------------
E----------------------
Dejame danzar en el fuego
Dejame volar en el fuego
Dejame danzar en el fuego
Dejame volar en el fuego
E-------------------|
B-------------------
G-------------------
D---------------3-2-|
A-4-3-0-3-0-3-0-----|  X 6
E-------------------|
Dejame danzar en el fuego
Dejame volar en el fuego
Dejame danzar en el fuego
Dejame volar en el fuego

Solo:
E----------------------------------
B----------------------------------
G----------------------------------
D-12/9-9-11/8-8-10/7-7-9/6-6-------
A-10/7-7--9/6-6--8/5-5-7/4-4-4-4-4-
E----------------------------2-2-2-
(ahi van algunas variaciones pero son muy faciles)
Cuando se aparece llueven llamas
mi voz se mueve en rios de colores
es porque la lleva el viento norte
vuela y mi amor lo hace mas fuerte

Dejame danzar en el fuego
Dejame volar en el fuego
Dejame danzar en el fuego
Dejame volar en el fuego
Solo una vez mas
Dejame danzar
Solo una vez mas
Dejame volar

Outro:
E-------------------|
B-------------------
G-------------------
D---------------3-2-|
A-4-3-0-3-0-3-0-----|  X 4
E-------------------|

E-----------------
B-----------------
G-----------------
D-----------------
A-4-4-4--4-4-4p---
E-2-2-2--2-2-2----
Suggest correction
Give kudos to tab author, rate the tab!
1 2 3 4 5
comments
print report bad tab
guest
You may want to rate the tab now too:
select rating
Wanna post a correction for this tab? Suggest correction