Oops, an error
Loading. Please wait.

Hágalo Bien Bass

148 views 1 this week
no commentswrite comment
1 2 3 4 5
3 more votes to show rating
add to favorites
launch autoscroll
font size
0
reset
guitar tuner
×
Best way to learn
"Hágalo Bien"
Autoscroll
slow
fast
+/-
esc
set tempo
stop
Hágalo Bien. (Bass Cover)

G|-----------------------|
D|-----------------------|
A|-8-8-11-11-10-10-13-13-|  [0:00 - 0:39]
E|-----------------------|

G|----------------------------------|
D|---3--3---6---6---5---5---8---8---|
A|----------------------------------|  [0:40 - 0:53]
E|-1--1---4---4---3---3---6---6-----|

G|------------------------|
D|------------------------|
A|-8-8-11-11-10-10-13-13--|  [0:54 - 1:20]
E|------------------------|

G|-----------------------------|
D|-----------------------------| [1:21 - 1:34]
A|-8-8-8-8-8-8-8-8-8-8-8-8-8-8-|
E|-----------------------------|

G|---------------------------|
D|---------------------------| [1:34 - 1:47] (Slap)
A|---------------------------|
E|-1-1-1-1-1-1-1-1-1-1-1-1-1-|

G|----------------------------------|
D|---3--3---6---6---5---5---8---8---|
A|----------------------------------|  [1:48 - 2:15]
E|-1--1---4---4---3---3---6---6-----|

G|-----------------------|
D|-----------------------|
A|-8-8-11-11-10-10-13-13-|  [2:16 - 2:38]
E|-----------------------|
Suggest correction
Give kudos to tab author, rate the tab!
1 2 3 4 5
comments
print report bad tab
guest
You may want to rate the tab now too:
select rating
Wanna post a correction for this tab? Suggest correction