Oops, an error
Loading. Please wait.

Mi Señora Bass

version 1
version 1

Whole song

199 views 1 this week
no commentswrite comment
1 2 3 4 5
3 more votes to show rating
add to favorites
×
Save as Personal and add changes to this tab that will be seen only by you. Learn more ›
×
You can save this tab as Personal to edit and correct it or add notes. All changes will be seen only by you. Learn more »
save as personal
new!
launch autoscroll
font size
0
reset
guitar tuner
Autoscroll
slow
fast
+/-
esc
set tempo
stop
                 Esta canción es super buena y no es tan difícil


                  Esta parte es con slap en la 3ª cuerda y popping en la 1ª
                  y se repite dos veces

G-------------|------6-------6-|-------4-------4-|-------6-------6-|-------8-------8--|
D-------------|----------------|-----------------|-----------------|------------------|
A-------------|--0h4---0-0h4---|-0-0h2---0-0h2---|-0-0h4---0-0h4---|-4-4h6---4-4h6----|
E-------------|----------------|-----------------|-----------------|------------------|
B--2----------|----------------|-----------------|-----------------|------------------|

Verso:
                                     1ª y 2ª    3ª y 4ª
G--?------------------------------|-----------|--------|
D---------------------------------|-----------|-8-9-10-|
A--6---6----4---4----6---6----8---|-8h10-8h10-|--------|
E----6---6----4---4----6---6----8-|-----------|--------|
B---------------------------------|-----------|--------|

Coro:

   Aquí con slap y pop               con los dedos
G------4-----7-----6-----5-|--4-4-4-4-7-7-7-7-6-6-6-6-5-5-5-5--|
D--------------------------|-----------------------------------|
A--2-2---5-5---4-4---3-3---|-----------------------------------|
E--------------------------|-----------------------------------|
B--------------------------|-----------------------------------|x2

Se repite: verso
           coro
           verso
           coro
           intro

Final: 'Son cosas que te meten en la cabeza tus amigas...'

G------------------------------------|-----------------------------|
D------------------------------------|-----------------------------|
A--2-2--2-5-5-5-5-5-4-4-4-4-3-3-3-3--|--0-3-2-1-0-3-2-1-.........--|
E------------------------------------|-----------------------------|
B------------------------------------|-----------------------------|
                                       Me falta esta parte que no la he
                                       podido sacar

Bueno ahi está casi todo me falta el final q se los dejo a ustedes jejejejejje
Suggest correction
Give kudos to tab author, rate the tab!
1 2 3 4 5
comments
print report bad tab
guest
Wanna post a correction for this tab? Suggest correction