Oops, an error
Loading. Please wait.

Mi Señora Bass Tab

version 2
version 2

Whole song

53 views 3 this week
no commentswrite comment
1 2 3 4 5
3 more votes to show rating
add to favorites
launch autoscroll
font size
0
reset
guitar tuner
Autoscroll
slow
fast
+/-
esc
set tempo
stop
Help us to improve Ultimate-Guitar.com Take our survey!
×
Bueno la hice especialmente para aquellos que no la encuentran,
no es una canción difícil, práctica y listo

Disfrutenla


Intro


 (Armónico)
G---10-------------------------------|
D---10-------------------------------|
A------------------------------------|
E------------------------------------|


 Slap x2


G-----6-------6-------4-------4-------6-----6-------8-----8-------|
D----------------------------------------------------------------o|
A-4-X---x-4-x---x-4-2---x-2-2---x-2-4---4-4---x-4-6---x-6---6-6--o|
E-----------------------------------------------------------------|


Verso x4

      oye mujer... para el escandalo...
G--------------------------------------------|
D--------------------------------------------|
A--6---6---4---4---6---6---8--8/10-8/10------|
E---6---6---4---4---6---6---8----------------|


Coro X2

     Mi señora...... buena pa'l copete
G-----4---7---6---5---4444-7777-6666-555----------|
D-------------------------------------------------|
A-x-2---5---4---3---------------------------------|
E-------------------------------------------------|


Verso x4
Coro  x2
Verso x6
Coro  x4
Slap  x2


Ending

1ra parte x 3

Son cosas que te meten en la cabeza tus amigas
G---------------------------------------------|
D--------------------------------------------o|
A--22-2-55555-44-4-33-3----------------------o|
E---------------------------------------------|

            ...Y que yo no voy a tolerar.
G----------------------------------------|
D----------------------------------------|
A--22-2-55555----------------------------|
E--------------2543-2543-2543-22210-x----|


Muy bien eso fue todo, que canción tan bakana... cuando la escuché
quedé sorprendido del estilo Rage Agains y Primus que reside en estos
Locos chilenos, metanle bien el Slap y colequenle al verso una variación
que depende del gusto de cada uno, porfavor diganme páginas de donde bajar
más material de los Sinergicos de Sinergia.

Se la dedico a Ana Rivera, no es que sea este tipo de señoras pero espero
que lo sea.

Dudas, comentarios, quejas, insultos, piropos, amorios, regañadas
               Juliancillo@

Viva el bajo!!! Viva Colombia!!! que Dios, Alá, Buda o quien sea me los
Bendiga
               No metan droga y no fumen malditasea
Suggest correction
Give kudos to tab author, rate the tab!
1 2 3 4 5
comments
print report bad tab
guest
You may want to rate the tab now too:
select rating
Wanna post a correction for this tab? Suggest correction