Oops, an error
Loading. Please wait.

No Sé En Que Gastar Mi Dinero Bass Tab

14 views 1 this week
no commentswrite comment
1 2 3 4 5
3 more votes to show rating
add to favorites
launch autoscroll
font size
0
reset
guitar tuner
Autoscroll
slow
fast
+/-
esc
set tempo
stop
Help us to improve Ultimate-Guitar.com Take our survey!
×
IMPORTANTE: Las notas con ¡! Van con slap

"Yo no se..."
G----------------------
D-----------------¡9!--
A----------------------
E-12-12-9-9-5-5/7------

"Una empresa..."
G-------------------------------
D-------------------------------
A----11-14-11-12-12-14-14-14-14-
E-12----------------------------

"Equipos de Futbol..."
G----------------------
D-----------------¡9!--
A----------------------
E-12-12-9-9-5-5/7------

"Sandwichs para todos..."
G---------------------------------
D-------------------------2-2-3-4-
A-2h3-2h3-2h3-2h3-2h3-2h3--------- X3
E---------------------------------

G---------2222222-
D-2-2-------------
A-----4-4---------
E-----------------

"Aviones para todos..."
G---------------------------
D-------------------2-2-3-4-
A-2h3-2-2h3-2-2h3-2--------- X3
E---------------------------

G---------2222222-etc-2-4-6-7-
D-2-2-------------------------
A-----4-4---------------------
E-----------------------------

Se repite todo hasta
"Oye Alberto..."
G--------------------------------------------
D--------------------------------------------
A-----------------------11-14-11-12-11----11-
E-12-11-9-7-5-4-2-4--12----------------14----

Ahi se va repitiendo de acuerdo a la cancion

Eso.
Suggest correction
Give kudos to tab author, rate the tab!
1 2 3 4 5
comments
print report bad tab
guest
You may want to rate the tab now too:
select rating
Wanna post a correction for this tab? Suggest correction