Oops, an error
Loading. Please wait.

Yo Soy Así Tab

48 views 1 this week
no commentswrite comment
1 2 3 4 5
3 more votes to show rating
add to favorites
launch autoscroll
font size
0
reset
how to read this tab
guitar tuner
×
Best way to learn
"Yo Soy Así"
Autoscroll
slow
fast
+/-
esc
set tempo
stop
Intro: SI SI
       SI SOL# RE# RE X2

SI SOL  RE# RE
Yo soy asi
SI SOL  RE# RE
emotivo asi
SI SOL  RE# RE
pensativo asi
SI SOL  RE# RE
retraido asi porque si

SI5-DO#5-SI5-DO#5
pero cuidado
SI5-DO#5-SI5-DO#5
tenga cuidado...

E--------------
B--------------
G--------------
D----4--4------
A-6-------6--4-
E--------------
con mi otro lado
(ahi se va repitiendo)

E---------------------------------14-----------
B-12-12--12-14--------12-14-16-16----16-15-15--
G--------------13-13---------------------------
D---------------------------------------------- X2
A----------------------------------------------
E----------------------------------------------

SI SOL  RE# RE
Yo soy asi
SI SOL  RE# RE
pero nunca tanto
SI SOL  RE# RE
si me presionan
SI SOL  RE# RE
me voy alterando asi que...

SI5-DO#5-SI5-DO#5
tenga cuidado
SI5-DO#5-SI5-DO#5
mucho cuidado...

E--------------
B--------------
G--------------
D----4--4------
A-6-------6--4-
E--------------
con mi otro lado...

Cuando se burlan de mi...
E---------9-12-9--------------9-12-9---------
B----9-12--------12-9-12-9-12--------12-9-12-
G-8~-----------------------------------------
D--------------------------------------------
A--------------------------------------------
E--------------------------------------------
ahi se va repitiendo hasta el final de esta parte

Solo
FA#5 SOL5 FA#5 SOL5

SI5-DO#5-SI5-DO#5
ya se lo dije
SI5-DO#5-SI5-DO#5
tenga cuidado...

E--------------
B--------------
G--------------
D----4--4------
A-6-------6--4-
E--------------
con mi otro lado...

OUTRO:
E----------------------------------------14-------------------
B-12-12-12-12-14----------12-14-16-16-16----16-15-15-15-15-12-
G----------------13-13-13-------------------------------------
D-------------------------------------------------------------
A-------------------------------------------------------------
E-------------------------------------------------------------
Suggest correction
Give kudos to tab author, rate the tab!
1 2 3 4 5
comments
print report bad tab
guest
You may want to rate the tab now too:
select rating
Wanna post a correction for this tab? Suggest correction