Oops, an error
Loading. Please wait.

Alégrame El Día Tab

version 2
version 2

Whole song

49 views 1 this week
no commentswrite comment
1 2 3 4 5
3 more votes to show rating
add to favorites
launch autoscroll
font size
0
reset
how to read this tab
guitar tuner
×
Best way to learn
"Alégrame El Día"
Autoscroll
slow
fast
+/-
esc
set tempo
stop
RIFF 1:
E|---------------------------------|---------------------------------|
B|---------------------------------|---------------------------------|
G|---------------------------------|---------------------------------|
D|-5---5---0---2---3---3---2---0---|-5---5---0---2---3---3---2---0---|
A|---------------------------------|---------------------------------|
E|---------------------------------|---------------------------------|

RIFF 2:
E|---------------------------------|---------------------------------|
B|---------------------------------|---------------------------------|
G|-5---5---0---2---3---3---2---0---|-5---5---0---2---3---3---2---0---|
D|---------------------------------|---------------------------------|
A|---------------------------------|---------------------------------|
E|---------------------------------|---------------------------------|

RIFF 3: (PRE ESTRIBILLO)
E|---------------------------|--------|------------------------------|
B|---------------------------|--------|------------------------------|
G|-7---7---7---7-----7---7---|-9------|-9---9---7---5---0---2---2----|
D|-5---5---5---5-----5---5---|-7------|------------------------------|
A|---------------------------|--------|------------------------------|
E|---------------------------|--------|------------------------------|

ESTRIBILLO:
C (5ª CUERDA)
RIFF 1
C (5ª CUERDA)
RIFF 1
G (4ª CUERDA)
F (4ª CUERDA)
RIFF 1
Suggest correction
Give kudos to tab author, rate the tab!
1 2 3 4 5
comments
print report bad tab
guest
You may want to rate the tab now too:
select rating
Wanna post a correction for this tab? Suggest correction