Oops, an error
Loading. Please wait.

Mata Hippies En Las Cíes Bass

82 views 1 this week
no commentswrite comment
1 2 3 4 5
3 more votes to show rating
add to favorites
launch autoscroll
font size
0
reset
guitar tuner
×
Best way to learn
"Mata Hippies En Las Cíes"
Autoscroll
slow
fast
+/-
esc
set tempo
stop
He visto los acordes para guitarra que han puesto por ahi,
pero me parece que no están bien.
Voy a poner cómo hago yo esta canción:

ESTROFAS:
---------------------------------
---------------------------------
---------------------------------
---3--3--3--12--12--12--12--12---

ESTRIBILLOS:
-------------------------------------------------
-------------------------------------------------
---------6--6--3--3--6--6--------6--6--3--3--6---
---6--6--------------------6--6------------------

FINAL:
-------------
-------------
-------------
---3--3--3---

Y EL CAMBIO, QUE NO LO RECUERDO MUY BIEN,
PERO MÁS O MENOS ERA ESTE ROLLO:
----------------------------------
----------------------------------
---6--6--5--5--4--4--3------------
------------------------6--5--4---
Suggest correction
Give kudos to tab author, rate the tab!
1 2 3 4 5
comments
print report bad tab
guest
You may want to rate the tab now too:
select rating
Wanna post a correction for this tab? Suggest correction