Oops, an error
Loading. Please wait.

Egoísta Tab

1 view 1 this week
no commentswrite comment
1 2 3 4 5
3 more votes to show rating
add to favorites
launch autoscroll
font size
0
reset
how to read this tab
guitar tuner
×
Best way to learn
"Egoísta"
Autoscroll
slow
fast
+/-
esc
set tempo
stop
   C   D#   G#   A#   D
|------------------------|
|------------------------|
|--5----8-------------7--|
|--5----8----6----8---7--|
|--3----6----6----8---5--|
|------------4----6------|

Punteo  *
|------------------------------------------------------
|------------------------------------------------------
|----8-7-8-7-5-7--8-7-------8-7-8-7-5-7---7--8----8-7--
|----------------------8----------------8-------------8
|------------------------------------------------------
|------------------------------------------------------

--------------------------------------|
--------------------------------------|
------7--10----8-7-8-7-5-7----7--8----|
----8-----------------------8---------|
--------------------------------------|
--------------------------------------|


C                   D#       G#                     A#
Esto se acaba y eres tú, eres tú kien ya no tiene remedio
*C                 D#       G#                     A#
Una y otra vez y siempre tú, una y otra vez y sólo tú
C           D#         G#              A#
siempre tú, sólo tú... y ké lugar okupo yo!

C                            D#
Cuando tienes frío yo te doy calor
G#                                 A#
noto en mi una extraña y triste sensación
C C             D# D# D#  G#                        A#
y pké se acabó el amor... y pké aún sufre mi corazón
*C             D#           G#                    A#
y llorando tumbada en el sofá, nunca comprendo tu actitud
C               D#           G#                    A#
una y otra vez y siempre tú, tampoco entiendo tu actitud

C                               D#
Lo ke empieza bien puede acabar mejor
C                          D#
si comienza mal terminará peor..
C C             D# D# D#  G#                                    A#
y pké se acabó el amor... y pké aún noto en mi esa extraña y
triste sensación
*C               D#           G#                     A#
Es evidente hoy sé ke tú sólo miraste por tu bien de nuevo
C        D#     G#          A#
di ke no, o sí, di ke no... llénamelo!

C     G#  D#
C     G#  A#
C     G#  D#
C     G#  A#
G#    C    A#    D# D C

Pero es tarde ya para enmendar tu error
no sirve de nada ahora pedir perdón
y pké se acabó el amor, y pké aún sufre mi pekeño y débil corazón

y con rabia solloza en su sillón   <--- de trankis otra vez

*una y otra vez y siempre tú, una y otra vez y sólo tú
siempre tú, sólo tú... una y otra vez y siempre tú!

uaaaaaahhhhh (ya no aguaaaanto máaaassss) x2

C               C               C              C
abro los ojos, por fin sé ke en este mundo no estás sólo tú
C               C            CC CC CC
lo ves, o no lo ves, lo ves

        -----------------------------------------------
        Sugerencias o preguntas: rompecocoz@
Suggest correction
Give kudos to tab author, rate the tab!
1 2 3 4 5
comments
print report bad tab
guest
You may want to rate the tab now too:
select rating
Wanna post a correction for this tab? Suggest correction