Oops, an error
Loading. Please wait.

Abolición Bass Tab

version 1
version 1

Whole song

Interactive

99 views 3 this week
no commentswrite comment
1 2 3 4 5
3 more votes to show rating
add to favorites
launch autoscroll
font size
0
reset
guitar tuner
Autoscroll
slow
fast
+/-
esc
set tempo
stop
Help us to improve Ultimate-Guitar.com Take our survey!
×
Intro:

G--------------
D--------------
A-3-2-0--------
E-------3------

G---------------------------------------
D------------4-5-67---5-4-3-2---5-4-3-2-
A---2-3-45-5--------3---------3---------
E-3-------------------------------------

G-------------------------------------------
D------------4-5-67---5-4-3-2---5-4-3-2-----
A---2-3-45-5--------3---------3---------3-0-
E-3-----------------------------------------

Verso: 'Tarde de abril...'

G---------------------------------------
D------------4-5-67---5-4-3-2---5-4-3-2-
A---2-3-45-5--------3---------3---------
E-3-------------------------------------

G-------------------------------------------
D------------4-5-67---5-4-3-2---5-4-3-2-----
A---2-3-45-5--------3---------3---------3-0-
E-3-----------------------------------------

Puente: (2 veces)
'Y es atentar contra la dignidad...'

G---------------------------------------
D------------4-5-67---5-4-3-2---5-4-3-2-
A---2-3-45-5--------3---------3---------
E-3-------------------------------------

'...la fiesta nacional...'

G-------------------------------------------
D------------4-5-67---5-4-3-2---5-4-3-2-----
A---2-3-45-5--------3---------3---------3-0-
E-3-----------------------------------------

Verso: 'Miro hacia arriba ...'

G-----------------------------------------
D------------4-5-676---2-5-4-3-2---2-3-45-
A---2-3-45-5---------3-----------3--------
E-3---------------------------------------

G-------------------------------------------
D------------4-5-67---5-4-3-2---5-4-3-2-----
A---2-3-45-5--------3---------3---------3-0-
E-3-----------------------------------------

Puente:
'Y es atentar contra la dignidad...'

G------------------------------------------
D------------4-5-67---2-5-4-32---5-4-3-2---
A---2-3-45-5--------3----------3---------3-
E-3----------------------------------------

'...la fiesta nacional...'

G-------------------------------------------
D------------4-5-67---5-4-3-2---5-4-3-2-----
A---2-3-45-5--------3---------3---------3-0-
E-3-----------------------------------------

'Y es atentar contra la dignidad, a la vida...'

G--------------------------
D------------4-7-4---------
A---2-3-45-5-------5-3-----
E-3------------------------

Parte rápìda:

G---------------------------------------------
D--------------4-7-5-4-----2-5-3-2-----2-2345-
A--2-5---5---5---------5-3---------5-3--------
E-3----3---3----------------------------------

G---------------------------------------------
D--------------4-7-5-4-----2-3-45-------------
A--2-5---5---5---------5-3--------3-2-0-------
E-3----3---3----------------------------3-----

'y es torero matador...'

G-------------------------------------------
D------------4-7-5-4-----2-3-45---5-4(4)32--
A---2-3-45-5---------5-3--------3-----------
E-3-----------------------------------------

G--------------------------------------
D-------------4-5-67---2-5-3-2--2-5-32-
A---2-5-2---5--------3---------3-------
E-3-------3----------------------------

G--------------------------------------
D-----------4-7-54-----2-5-332--2-3-45-
A---2-5---5--------5-3---------3-------
E-3-----3------------------------------

G--------------------------------------
D------------4-7-4-----2-3-45---2-3-4--
A---2-3-45-5-------5-3--------3--------
E-3------------------------------------

'ska,ska,ska,ska...'

G-------------------------------
D------------4-7-5-----2-3-45---
A---2-3-45-5-------5-3--------3-
E-3-----------------------------

'ska,ska,ska,ska'

G---------------------------------------------
D---------------4-7-5-4-----2-3-45---22-33-45-
A---2-5---5---5---------5-3--------3----------
E-3-----3---3---------------------------------

Verso: 'Ya se acabo...'

G-----------------------------------------------
D----------------4-7-5-4-----2-3-45---5-4(4)32--
A---2-5----(2)-5---------5-3--------3-----------
E-3-----(3)-------------------------------------

'mañana hay más...'

G------------------------------------------
D------------4-7-54---2-5-32-----22-33-45--
A---2-3-45-5--------3--------5-3-----------
E-3----------------------------------------

Puente: (2 veces)
'Y es atentar contra la dignidad...'

G---------------------------------------
D------------4-5-67---5-4-3-2---5-4-3-2-
A---2-3-45-5--------3---------3---------
E-3-------------------------------------

'...la fiesta nacional...'

G-------------------------------------------
D------------4-5-67---5-4-3-2---5-4-3-2-----
A---2-3-45-5--------3---------3---------3-0-
E-3-----------------------------------------

'y es torero matador...'

G-------------------------------------------
D------------4-7-5-4-----2-3-45---5-4(4)32--
A---2-3-45-5---------5-3--------3-----------
E-3-----------------------------------------

G--------------------------------------
D-------------4-5-67---5-4-32---5-4-32-
A---2-5-2---5--------3--------3--------
E-3-------3----------------------------

G--------------------------------------
D-----------4-7-54-----2-5-332--2-3-45-
A---2-5---5--------5-3---------3-------
E-3-----3------------------------------

G---------------------------------------
D------------4-7-54-----2-3-45---2-3-4--
A---2-3-45-5--------5-3--------3--------
E-3-------------------------------------

'ska,ska,ska,ska...'

G-------------------------------
D------------4-7-5-----2-3-45---
A---2-3-45-5-------5-3--------3-
E-3-----------------------------

'ska,ska,ska,ska'

G---------------------------------------------
D---------------4-7-5-4-----2-3-45---22-33-45-
A---2-5---5---5---------5-3--------3----------
E-3-----3---3---------------------------------

'y es torero matador...'

G-------------------------------------------
D------------4-7-5-4-----2-3-45---5-4(4)32--
A---2-3-45-5---------5-3--------3-----------
E-3-----------------------------------------

G--------------------------------------
D-------------4-5-67---2-5-3-2--2-5-32-
A---2-5-2---5--------3---------3-------
E-3-------3----------------------------

G------------------------------------
D-----------7-6-54---2-5-332--2-3-45-
A---2-5---5--------3---------3-------
E-3-----3----------------------------

G-------------------------------------
D------------4-5-67---2-3-45---2-3-4--
A---2-5-2--5--------3--------3--------
E-3------3----------------------------

Final: 'ska,ska,ska,ska'

G--------------
D--------------
A-33-22-00-----
E----------3---
Suggest correction
Give kudos to tab author, rate the tab!
1 2 3 4 5
comments
print report bad tab
guest
You may want to rate the tab now too:
select rating
Wanna post a correction for this tab? Suggest correction