Oops, an error
Loading. Please wait.

Alí El Magrebí Tab

56 views 1 this week
no commentswrite comment
1 2 3 4 5
3 more votes to show rating
add to favorites
launch autoscroll
font size
0
reset
how to read this tab
guitar tuner
Autoscroll
slow
fast
+/-
esc
set tempo
stop
Help us to improve Ultimate-Guitar.com Take our survey!
×
Intro/Fill:
e|-----------------------------------------------|
B|-----------------------------------------------|
G|---------2-2-------------2-2-----------2-2-----|
D|-4-4-2-4-----2-4---4-2-4-------4-4-2-4-----2-4-|
A|-----------------------------------------------|
E|-----------------------------------------------|

   F#m
e|-------------------------------------------------------------|
B|-------------------------------------------------------------|
G|---------2-2-------------2-2-----------2-2-------------------|
D|-4-4-2-4-----2-4---4-2-4-------4-4-2-4-----2-4---------------|
A|------------------------------------------------/4-4-2-0-----|
E|---------------------------------------------------------4-2-|

Verso:
F#m
 No se si te acuerdas de mi, yo soy Ali
aquel pobre desgraciao de la región de al lao que le pillaron con hachis.
Ali, ali, Ali el magrebi, un dia triste decidí
Huir de la miseria, cruzando la frontera para llegar a tu país.
D                                    F#m
Contra el viento y a través del mar, Ali

  (F#m)
e|-------------------------------------------------------------|
B|-------------------------------------------------------------|
G|---------2-2-------------2-2-----------2-2-------------------|
D|-4-4-2-4-----2-4---4-2-4-------4-4-2-4-----2-4---------------|
A|------------------------------------------------/4-4-2-0-----|
E|---------------------------------------------------------4-2-|

Verso:
F#m
 Mis sueños hechos realidad, voy a llegar
Yo solo quiero trabajar, no pido caridad, tan solo una oportunidad
Ali,Ali, Ali el magrebi pasa el estrecho sin dudar
jugandome la vida, dejando mi familia, para algun dia regresar
D                                   F#m
Contra el viento y a traves del mar Ali

  (F#m)
e|-----------------------------------------------|
B|-----------------------------------------------|
G|---------2-2-------------2-2-----------2-2-----|
D|-4-4-2-4-----2-4---4-2-4-------4-4-2-4-----2-4-|
A|-----------------------------------------------|
E|-----------------------------------------------|

Coro:
B
  En Londres o en Paris, Berlin, Roma o Madrid
 D                        B
Ali, Ali no sabe donde vivir
                   A
Ali, cerca del año 2000
                    E
Ali, intenta sobrevivir
 D                          B
Ali, Ali tu media luna esta gris
                        A
Ali, el cielo llora por ti
                       E
Ali, perdido en este pais

  (F#m)
e|-------------------------------------------------------------|
B|-------------------------------------------------------------|
G|---------2-2-------------2-2-----------2-2-------------------|
D|-4-4-2-4-----2-4---4-2-4-------4-4-2-4-----2-4---------------|
A|------------------------------------------------/4-4-2-0-----|
E|---------------------------------------------------------4-2-|

Verso:
F#m
Mas de seis dias sin comer ,que voy a hacer
no tengo ni donde dormir, no podre resistir, no se que coño pasa aqui
Ala, Ala, asisteme Ala, que largo este Ramadam
Nadie me echa una mano, aunque somos hermanos, tu antepasado es Magrebi
D                                 F#m
Grito al viento que me asista Alá Alá

  (F#m)
e|-----------------------------------------------|
B|-----------------------------------------------|
G|---------2-2-------------2-2-----------2-2-----|
D|-4-4-2-4-----2-4---4-2-4-------4-4-2-4-----2-4-|
A|-----------------------------------------------|
E|-----------------------------------------------|

Coro:
B
  En Londres o en Paris, Berlin, Roma o Madrid
 D                        B
Ali, Ali no sabe donde vivir
                   A
Ali, cerca del año 2000
                    E
Ali, intenta sobrevivir
 D                          B
Ali, Ali tu media luna esta gris
                        A
Ali, el cielo llora por ti
                       E
Ali, perdido en este pais

 D                        B
Ali, Ali no sabe donde vivir
                   A
Ali, cerca del año 2000
                    E
Ali, intenta sobrevivir
 D                          B
Ali, Ali tu media luna esta gris
                        A
Ali, el cielo llora por ti
                       E
Ali, perdido en este pais

  (F#m)
e|-----------------------------------------------|
B|-----------------------------------------------|
G|---------2-2-------------2-2-----------2-2-----|
D|-4-4-2-4-----2-4---4-2-4-------4-4-2-4-----2-4-|
A|-----------------------------------------------|
E|-----------------------------------------------|


Lo que se les ofrezca compañeros:
jaime_dick_shaped_box@
Suggest correction
Give kudos to tab author, rate the tab!
1 2 3 4 5
comments
print report bad tab
guest
You may want to rate the tab now too:
select rating
Wanna post a correction for this tab? Suggest correction