Oops, an error
Loading. Please wait.

America Latina ¡¡libre!! Tab

version 1
version 1

Whole song

53 views 1 this week
no commentswrite comment
1 2 3 4 5
3 more votes to show rating
add to favorites
launch autoscroll
font size
0
reset
how to read this tab
guitar tuner
Autoscroll
slow
fast
+/-
esc
set tempo
stop
Help us to improve Ultimate-Guitar.com Take our survey!
×
La tablatura ya está, lo que sin el punteo de la 
intro, aqui teneis el punteo:

Intro:

   G          C          D          C
E:-----3----------0----------2------------0--------
B:---3---3------1---1------3---3--------1---1------
G:---------0----------0----------2----0-------0----
D:-----------------------0-------------------------
A:------------2---------------------2--------------
E:-3-----------------------------------------------

   G          C          D          
E:-----3----------0----------2--2-----2-----------
B:---3---3------1---1--------3----3---------------
G:---------0----------0------2------2-------------
D:-----------------------0---0--------------------
A:------------2-----------------------------------
E:-3----------------------------------------------

Y aki empieza:


   G          C          D          C
E:-----3----------0----------2------------0--------
B:---3---3------1---1------3---3--------1---1------
G:---------0----------0----------2----0-------0----
D:-----------------------0-------------------------
A:------------2---------------------2--------------
E:-3-----------------------------------------------

1- Hermano     peruano
2- Hermano     boliviano


   G          C          D          
E:-----3----------0----------2--------------------
B:---3---3------1---1--------3--------------------
G:---------0----------0------2--------------------
D:-----------------------0---0--------------------
A:------------2-----------------------------------
E:-3----------------------------------------------

1- Hermano    colombiano
2- Hermano    mejicano


   D                G         C         D         C           D       
E:-2--2--2--2--------------3---------0---------2-----------0---------2-----2-2-----2-
B:-3--3--3--3------------3---3-----1---1-----3---3-------1---1-----3---3---3---3-----
G:-2--2--2--2------------------0---------0---------2---0-------0---------2-2-----2---
D:-0--0--0--0------------------------------0---------------------0-------------------
A:----------------------------2-------------------2----------------------------------
E:------------------3----------------------------------------------------------------

1- Hermano cubano,  que con tu sangre hiciste la revolucion
2- Hermano Chileno, rios de sangre que derramo el dictador

 
(aki sigue la otra transcripción)

Ahora, tokas este punteo:

5|----2--5-3--0--3-5--5--0-3--2--0----
6|-3----------------------------------
Yo te kiero Nicaragua, yo te kiero Salvador
yo te kiero Guatemala, yo te kiero mogollon

Ahora tokas: G C D

G     C  D
Mamiiii, bom bom bom
Mami mami, bom bom bom

G
Bailalo mamita este ritmito sabroson
C                       D
Bailalo mamita hasta ke salga el sol


G             C
Hay dolor en America latina
D                    C
el clamor de todo un pueblo por la Libertad!
la pobreza creo a los insurrectos
ke mueren en las montañas por la Libertad!
sobornando finjidas democracias
dictaduras ke les privan de su Libertad!
sometidos al imperialismo yanki
al poder del dolar ¡Largate!

G          C          D
Dejales su tierra laboral ¡Largate!
No les robes su riqueza ¡Largate!
Dejales su tierra laboral ¡Largate!
Yankis imperialistas!!

Mamiiii, bom bom bom
Mami mami, bom bom bom

Bailalo mamita este ritmito sabroson
Bailalo mamita hasta ke salga el sol
Duerme mi nenita y sueña kon la libertad
Duerme mi nenita y sueña kon la paz

Y al final del kamino la viktoria
las heridas cikatrizan kon la Libertad!
la violencia se llama ekonomia
ke destrosa su kultura, su Libertad!
enterados, malditos karroñeros
por encima del dinero esta la Libertad!
represion en america latina
Gringos estafando ¡Largate!

Dejales su tierra laboral ¡Largate!
No les robes su riqueza ¡Largate!
Dejales su tierra laboral ¡Largate!
Malditos yankis!!

Otra vez el punteito del principio, y:

America latina, yo te quiero mogollon!

G         C           D        C
Ecuador! Argentina! Panamá! Venezuela!
Haiti! Uruguay! Honduras! Paraguay!
Costa Rica! Republica Dominicana! Brasiiil!

America Latina !!libre!!
Suggest correction
Give kudos to tab author, rate the tab!
1 2 3 4 5
comments
print report bad tab
guest
You may want to rate the tab now too:
select rating
Wanna post a correction for this tab? Suggest correction