Oops, an error
Loading. Please wait.

Derecho De Admisión Tab

version 1
version 1

Whole song

Interactive

by Ska-P
104 views 3 this week
no commentswrite comment
1 2 3 4 5
3 more votes to show rating
add to favorites
launch autoscroll
font size
0
reset
how to read this tab
guitar tuner
×
Best way to learn
"Derecho De Admisión"
Autoscroll
slow
fast
+/-
esc
set tempo
stop
Otra gran kancion de Ska-P y facilita de tokar...:


Esta es la parte de gaita, pero transcrita en guitarra
 A                             E
---------------------------------------------
---------------------------------------------
---------------------------------------------
---------4-----7---------------4--4----------
-4-5-7-------7---7-----4-5-7---------7-5-4---
-------------------------------------------7-
 A                     D       E       A
---------------------------------------------
---------------------------------------------
---------------------------------------------
---------4-----7-----------------------------
-4-5-7-------7---7-----4-5-7---4---5-4-------
---------------------------------------7---5-

 A                             E
---------------------------------------------
---------------------------------------------
---------------------------------------------
-7-7-7-----------4-----7-7-7-----------------
--------7--4--7-----7---------7--4--7--------
---------------------------------------7-----
 A                     D       E       A
---------------------------------------------
---------------------------------------------
---------------------------------------------
-7-7-7-----------4---------------------------
--------7--4--7-----7--4-5-7--4--5-4---------
-------------------------------------7---5---


(despues se tocan denuevo pero con todo el ritmo skaa!)


A                                    E-E
Han abierto un antro muy cerca de aquí
E                                         A - A
son las cuatro y media y no nos vamos a dormir
A                                    D
vamos al garito a ver si se enrollan bien
D             A            E        A
pinchan buena música y nos ponen de beber

En la puerta hay un gorila, menuda decepción
nos impide el paso y nos da una explicación
con esas putas pintas aquí no entra ni Dios
tenemos reservado el derecho de admisión.
D           A         E            A
TIENEN RESERVADO EL DERECHO DE ADMISIÓN


(con distorsion)
D               A     E           A  (A B C#)
QUE LES DEN POR CULO, VÁMONOS DE AQUÍ
D         A         E              A
TIRA P'AL BARRIO AL BAR DEL TÍO FERMÍN
D            A      E            A  (A B C#)
VIVA EL VINO TINTO, VIVA EL FUTBOLÍN
D            A                 E~
MIS BUENOS COLEGAS Y MI BUEN HACHÍS

Como nunca había nadie, cambió la situación
podéis entrar chavales, todo fue una confusión
ahora que te jodan, no me da el copón
te metes por el culo tu derecho de admisión
QUE SE METAN POR EL CULO SU DERECHO DE ADMISIÓN

QUE LES DEN POR CULO, VÁMONOS DE AQUÍ
TIRA P?AL BARRIO AL BAR DEL TÍO FERMÍN
VIVA EL VINO TINTO, VIVA EL FUTBOLÍN
MIS BUENOS COLEGAS Y MI BUEN HACHÍS...
Suggest correction
Give kudos to tab author, rate the tab!
1 2 3 4 5
comments
print report bad tab
guest
You may want to rate the tab now too:
select rating
Wanna post a correction for this tab? Suggest correction