Oops, an error
Loading. Please wait.

Derecho De Admisión Bass Tab

version 1
version 1

Whole song

Interactive

148 views 3 this week
1 commentread comment
1 2 3 4 5
2 more votes to show rating
add to favorites
launch autoscroll
font size
0
reset
guitar tuner
×
Best way to learn
"Derecho De Admisión"
Autoscroll
slow
fast
+/-
esc
set tempo
stop
NOTA:

Espero y te ayude en algo esta tab.

Si necesitas una tab en especial, escríbeme o visita...


             W                   H.            Q
G||-------|-------------------|----------------------|
D||-------|-------------------|----------------------|
A||-------|--0----------------|--L------------12----|
E||-------|-------------------|----------------------|


  W                   H.            Q        W
-------------------|----------------------|-------------------|
-------------------|----------------------|-------------------|
--0----------------|--L------------12----|--0----------------|
-------------------|----------------------|-------------------|


  H.            Q        W                   H.            Q
----------------------|-------------------|----------------------|
----------------------|-------------------|----------------------|
--L------------12----|--0----------------|--L------------12----|
----------------------|-------------------|----------------------|


  W                   H.            Q        W
-------------------|----------------------|-------------------|
-------------------|----------------------|-------------------|
--0----------------|--L------------12----|--0----------------|
-------------------|----------------------|-------------------|


  H.            Q        W                   H.            Q
----------------------|-------------------|----------------------|
----------------------|-------------------|----------------------|
--L------------12----|--0----------------|--L------------12----|
----------------------|-------------------|----------------------|


  W                   E  E  E  E  Q    Q       E  E  E  E  H
-------------------|------------------------|-----------------------|
-------------------|------------------------|-----------------------|
--0----------------|--------------7---------|-----------------------|
-------------------|--7-----7---------------|--7-----7-----0--------|


  H
-----------|-------|-------|-------|-------|
-----------|-------|-------|-------|-------|
-----------|-------|-------|-------|-------|
--L--------|-------|-------|-------|-------|


  E  E  E  E  E  E  E  E     E  E  E  E  E  E  E  E
--------------------------|--------------------------|
--------------------------|--------------------------|
--------5-----------------|--------5-----7-----------|
--5-----------5-----0-----|--5-----------------7-----|


  E  E  E  E  E  E  E  E     E  E  E  E  E  E  E  E
--------------------------|--------------------------|
--------------------------|--------------------------|
--------5-----------------|--5-----7-----------------|
--5-----------5-----0-----|--------------5-----0-----|


  E  E  E  E  E  E  E  E     E  E  E  E  E  E  E  E
--------------------------|--------------------------|
--------------------------|--------------------------|
--------5-----------------|--------5-----7-----------|
--5-----------5-----0-----|--5-----------------7-----|


  E  E  E  E  E  E  E  E     E  E  E  E  E  E  E  E
--------------------------|--------------------------|
--------------------------|--------------------------|
--------5-----------------|--5-----7-----------------|
--5-----------5-----0-----|--------------5-----0-----|


  E  E  E  E  E  E  E  E     E  E  E  E  E  E  E  E
--------------------------|--------------------------|
--------------------------|--------------------------|
--------------------------|--------------7-----------|
--5-----0-----5-----0-----|--5-----0-----------7-----|


  E  E  E  E  E  E  E  E     E  E  E  E  E  E  E  E
--------------------------|--------------------------|
--------------------------|--------------------------|
--------------------------|--5-----7-----------------|
--5-----0-----5-----0-----|--------------5-----0-----|


  E  E  E  E  E  E  E  E     E  E  E  E  E  E  E  E
--------------------------|--------------------------|
--------------------------|--------------------------|
--------------------------|--------------7-----------|
--5-----0-----5-----0-----|--5-----0-----------7-----|


  E  E  E  E  E  E  E  E     E  E  E  E  E  E  E  E
--------------------------|--------------------------|
--------------------------|--------------------------|
--------------------------|--5-----7-----------------|
--5-----0-----5-----0-----|--------------5-----0-----|


  E  E  E  E  E  E  E  E     E  E  E  E  E  E  Q
--------------------------|-------------------------|
--------------------------|-------------------------|
--------------------------|-----------------7--7----|
--5-----0-----5-----0-----|--5-----0-----7----------|


  E  E  E  E  E  E  E  E     E  E  E  Q    Q    E
--------------------------|------------------------|
--------------------------|------------------------|
--7-----------7-----------|--7---------------------|
--------7-----------7-----|--------7-------5----5--|


  E  E  E  E  E  E  E  E     E  E  E  E  E  E  E  E
--------------------------|--------------------------|
--------------------------|--------------------------|
--------------------------|--------------5-----------|
--5-----0-----5-----0-----|--5-----0-----------5-----|


  E  E  E  E  E  E  E  E     E  E  E  E  Q    Q
--------------------------|------------------------|
--------------------------|------------------------|
--5-----------------------|--7---------------------|
--------5-----5-----0-----|--------7-----5----L----|


  E  E  E  E  E  E  E  E     E  E  E  E  E  E  E  E
--------------------------|--------------------------|
--------------------------|--------------------------|
--------5-----------------|--------5-----7-----------|
--5-----------5-----0-----|--5-----------------7-----|


  E  E  E  E  E  E  E  E     E  E  E  E  E  E  E  E
--------------------------|--------------------------|
--------------------------|--------------------------|
--------5-----------------|--5-----7-----------------|
--5-----------5-----0-----|--------------5-----0-----|


  E  E  E  E  E  E  E  E     E  E  E  E  E  E  Q
--------------------------|-------------------------|
--------------------------|-------------------------|
--------------------------|-----------------7--7----|
--5-----0-----5-----0-----|--5-----0-----7----------|


  E  E  E  E  E  E  E  E     E  E  E  Q    Q    E
--------------------------|------------------------|
--------------------------|------------------------|
--7-----------7-----------|--7---------------------|
--------7-----------7-----|--------7-------5----5--|


  E  E  E  E  E  E  E  E     E  E  E  E  E  E  E  E
--------------------------|--------------------------|
--------------------------|--------------------------|
--------------------------|--------------5-----------|
--5-----0-----5-----0-----|--5-----0-----------5-----|


  E  E  E  E  E  E  E  E     E  E  E  E  E  E  E  E
--------------------------|--------------------------|
--------------------------|--------------------------|
--5-----------------------|--7-----------------------|
--------5-----5-----0-----|--------7-----5-----5-----|


  E  E  E  E  E  E  E  E     E  E  E  E  E  E  E  E
--------------------------|--------------------------|
--------------------------|--------------------------|
--5-----------------------|--7-----------------------|
--------5-----5-----0-----|--------7-----5-----5-----|


  E  E  E  E  E  E  E  E     E  E  E  E  E  E  E  E
--------------------------|--------------------------|
--------------------------|--------------------------|
--5--5--5--5--5--5--5--5--|--------------------------|
--------------------------|--5--5--5--5--5--5--5--5--|


  E  E  E  E  E  E  E  E     E  E  E  E  E  E  E  E
--------------------------|--------------------------|
--------------------------|--------------------------|
--7--7--7--7--7--7--7--7--|--------------------4--4--|
--------------------------|--5--5--5--5--7--7--------|


  E  E  E  E  E  E  E  E     E  E  E  E  E  E  E  E
--------------------------|--------------------------|
--------------------------|--------------------------|
--5--5--5--5--5--5--5--5--|--------------------------|
--------------------------|--5--5--5--5--5--5--5--5--|


  E  E  E  E  E  E  E  E     E  E  E  E  E  E  E  E
--------------------------|--------------------------|
--------------------------|--------------------------|
--7--7--7--7--7--7--7--7--|--------------------4--4--|
--------------------------|--5--5--5--5--7--7--------|


  E  E  E  E  E  E  E  E     E  E  E  E  E  E  E  E
--------------------------|--------------------------|
--------------------------|--------------------------|
--5--5--5--5--5--5--5--5--|--------------------------|
--------------------------|--5--5--5--5--5--5--5--5--|


  E  E  E  E  E  E  E  E     E  E  E  E  E  E  E  E
--------------------------|--------------------------|
--------------------------|--------------------------|
--7--7--7--7--7--7--7--7--|--------------------4--4--|
--------------------------|--5--5--5--5--7--7--------|


  E  E  E  E  E  E  E  E     E  E  E  E  E  E  E  E
--------------------------|--------------------------|
--------------------------|--------------------------|
--5--5--5--5--5--5--5--5--|--------------------------|
--------------------------|--5--5--5--5--5--5--5--5--|


  E  E  E  E  E  E  E  E     E  E  E  E  E  E  Q
--------------------------|-------------------------|
--------------------------|-------------------------|
--------------------------|--7--7--7--7--7--7--7----|
--7--7--7--7--7--7--7--7--|-------------------------|


  E  E  E  E  E  E  E  E     E  E  E  E  E  E  E  E
--------------------------|--------------------------|
--------------------------|--------------------------|
--------5-----------------|--------5-----7-----------|
--5-----------5-----0-----|--5-----------------7-----|


  E  E  E  E  E  E  E  E     E  E  E  E  E  E  E  E
--------------------------|--------------------------|
--------------------------|--------------------------|
--------5-----------------|--5-----7-----------------|
--5-----------5-----0-----|--------------5-----0-----|


  E  E  E  E  E  E  E  E     E  E  E  E  E  E  E  E
--------------------------|--------------------------|
--------------------------|--------------------------|
--------5-----------------|--------5-----7-----------|
--5-----------5-----0-----|--5-----------------7-----|


  E  E  E  E  E  E  E  E     E  E  E  E  E  E  E  E
--------------------------|--------------------------|
--------------------------|--------------------------|
--------5-----------------|--5-----7-----------------|
--5-----------5-----0-----|--------------5-----0-----|


  E  E  E  E  E  E  E  E     E  E  E  E  E  E  E  E
--------------------------|--------------------------|
--------------------------|--------------------------|
--------------------------|--------------7-----------|
--5-----0-----5-----0-----|--5-----0-----------7-----|


  E  E  E  E  E  E  E  E     E  E  E  E  E  E  E  E
--------------------------|--------------------------|
--------------------------|--------------------------|
--------------------------|--5-----7-----------------|
--5-----0-----5-----0-----|--------------5-----0-----|


  E  E  E  E  E  E  E  E     E  E  E  E  E  E  E  E
--------------------------|--------------------------|
--------------------------|--------------------------|
--------------------------|--------------7-----------|
--5-----0-----5-----0-----|--5-----0-----------7-----|


  E  E  E  E  E  E  E  E     E  E  E  E  E  E  E  E
--------------------------|--------------------------|
--------------------------|--------------------------|
--------------------------|--5-----7-----------------|
--5-----0-----5-----0-----|--------------5--5--5--5--|


  E  E  E  E  E  E  E  E     E  E  E  E  E  E  E  E
-----6--4--------4--------|--------------------------|
--4--------4--------7-----|--------------4-----4--6--|
--------------7--------7--|--5--4--5--7-----7--------|
--------------------------|--------------------------|


  E  E  E  E  E  E  E  E     E  E  E  E  E  E  E  E
-----6--4--------4--------|--------------------------|
--4--------4--------7-----|--------------4-----4--6--|
--------------7--------7--|--5--4--5--7-----7--------|
--------------------------|--------------------------|


  E  E  E  E  E  E  E  E     E  E  E  E  E  E  E  E
-----6--4--------4--------|--------------------------|
--4--------4--------7-----|--------------4-----4--6--|
--------------7--------7--|--5--4--5--7-----7--------|
--------------------------|--------------------------|


  E  E  E  E  E  E  E  E     E  E  E  E  E  E  E  E
--------------------------|--------------------------|
--------------------------|--------------------------|
--------------5--5--5--5--|--4--4--4--4--------------|
--5--5--5--5--------------|--------------7--7--7--7--|


  E  E  E  E  E  E  E  E     E  E  E  E  E  E  Q
--------------------------|-------------------------|
--------------------------|-------------------------|
--------------------------|-----------------7--7----|
--5-----0-----5-----0-----|--5-----0-----7----------|


  E  E  E  E  E  E  E  E     E  E  E  Q    Q    E
--------------------------|------------------------|
--------------------------|------------------------|
--7-----------7-----------|--7---------------------|
--------7-----------7-----|--------7-------5----5--|


  E  E  E  E  E  E  E  E     E  E  E  E  E  E  E  E
--------------------------|--------------------------|
--------------------------|--------------------------|
--------------------------|--------------5-----------|
--5-----0-----5-----0-----|--5-----0-----------5-----|


  E  E  E  E  E  E  E  E     E  E  E  E  E  Q.
--------------------------|------------------------|
--------------------------|------------------------|
--5-----------------------|--7---------------------|
--------5-----5-----0-----|--------7-----5--L------|


  E  E  E  E  E  E  E  E     E  E  E  E  E  E  E  E
--------------------------|--------------------------|
--------------------------|--------------------------|
--5-----------------------|--7-----------------------|
--------5-----5-----0-----|--------7-----5--5--5--5--|


  E  E  E  E  E  E  E  E     E  E  E  E  E  E  E  E
--------------------------|--------------------------|
--------------------------|--------------------------|
--5--5--5--5--5--5--5--5--|--------------------------|
--------------------------|--5--5--5--5--5--5--5--5--|


  E  E  E  E  E  E  E  E     E  E  E  E  E  E  E  E
--------------------------|--------------------------|
--------------------------|--------------------------|
--7--7--7--7--7--7--7--7--|--------------------4--4--|
--------------------------|--5--5--5--5--7--7--------|


  E  E  E  E  E  E  E  E     E  E  E  E  E  E  E  E
--------------------------|--------------------------|
--------------------------|--------------------------|
--5--5--5--5--5--5--5--5--|--------------------------|
--------------------------|--5--5--5--5--5--5--5--5--|


  E  E  E  E  E  E  E  E     E  E  E  E  E  E  E  E
--------------------------|--------------------------|
--------------------------|--------------------------|
--7--7--7--7--7--7--7--7--|--------------------4--4--|
--------------------------|--5--5--5--5--7--7--------|


  E  E  E  E  E  E  E  E     E  E  E  E  E  E  E  E
--------------------------|--------------------------|
--------------------------|--------------------------|
--5--5--5--5--5--5--5--5--|--------------------------|
--------------------------|--5--5--5--5--5--5--5--5--|


  E  E  E  E  E  E  E  E     E  E  E  E  E  E  E  E
--------------------------|--------------------------|
--------------------------|--------------------------|
--7--7--7--7--7--7--7--7--|--------------------4--4--|
--------------------------|--5--5--5--5--7--7--------|


  E  E  E  E  E  E  E  E     E  E  E  E  E  E  E  E
--------------------------|--------------------------|
--------------------------|--------------------------|
--5--5--5--5--5--5--5--5--|--------------------------|
--------------------------|--5--5--5--5--5--5--5--5--|


  E  E  E  E  E  E  E  E     E  E  E  E  E  E  Q
--------------------------|-------------------------|
--------------------------|-------------------------|
--------------------------|--7--7--7--7--7--7--7----|
--7--7--7--7--7--7--7--7--|-------------------------|


  W
-------------------|-------|-------|-------|-------|-------|
-------------------|-------|-------|-------|-------|-------|
--L----------------|-------|-------|-------|-------|-------|
-------------------|-------|-------|-------|-------|-------|


  E  E  E  E  E  E  E  E     E  E  E  E  E  E  E  E
--------------------------|--------------------------|
--------------------------|--------------------------|
--------------------------|--------------7-----------|
--5-----0-----5-----0-----|--5-----0-----------7-----|


  E  E  E  E  E  E  E  E     E  E  E  E  E  E  E  E
--------------------------|--------------------------|
--------------------------|--------------------------|
--------------------------|--5-----7-----------------|
--5-----0-----5-----0-----|--------------5-----0-----|


  E  E  E  E  E  E  E  E     E  E  E  E  E  E  E  E
--------------------------|--------------------------|
--------------------------|--------------------------|
--------------------------|--------------7-----------|
--5-----0-----5-----0-----|--5-----0-----------7-----|


  E  E  E  E  E  E  E  E     E  E  E  E  E  E  E  E
--------------------------|--------------------------|
--------------------------|--------------------------|
--------------------------|--5-----7-----------------|
--5-----0-----5-----0-----|--------------5-----0-----|


  E  E  E  E  E  E  E  E     E  E  E  E  E  E  E  E
--------------------------|--------------------------|
--------------------------|--------------------------|
--------------------------|--------------7-----------|
--5-----0-----5-----0-----|--5-----0-----------7-----|


  E  E  E  E  E  E  E  E     E  E  E  E  E  E  E  E
--------------------------|--------------------------|
--------------------------|--------------------------|
--------------------------|--5-----7-----------------|
--5-----0-----5-----0-----|--------------5-----0-----|


  W                   E  E  H.              W
-------------------|---------------------|-------------------|
-------------------|---------------------|-------------------|
-------------------|---------------------|-------------------|
--5----------------|--5------------------|--5----------------|


  E  E  E  Q    E  Q       E  E  E  E  E  E  E  E
------------------------|--------------------------|
------------------------|--------------------------|
--5-----7---------------|--------5-----------------|
----------------5--5----|--5-----------5-----0-----|


  E  E  E  E  E  E  E  E     E  E  E  E  E  E  E  E
--------------------------|--------------------------|
--------------------------|--------------------------|
--------5-----7-----------|--------5-----------------|
--5-----------------7-----|--5-----------5-----0-----|


  E  E  E  E  E  E  E  E     E  E  E  E  E  E  E  E
--------------------------|--------------------------|
--------------------------|--------------------------|
--5-----7-----------------|--------5-----------------|
--------------5-----0-----|--5-----------5-----0-----|


  E  E  E  E  E  E  E  E     E  E  E  E  E  E  E  E
--------------------------|--------------------------|
--------------------------|--------------------------|
--------5-----7-----------|--------5-----------------|
--5-----------------7-----|--5-----------5-----0-----|


  E  E  E  E  E  E  E  E     E  E  E  E  E  E  E  E
--------------------------|--------------------------|
--------------------------|--------------------------|
--5-----7-----------------|--5--5--5--5--5--5--5--5--|
--------------5-----0-----|--------------------------|


  E  E  E  E  E  E  E  E     E  E  E  E  E  E  E  E
--------------------------|--------------------------|
--------------------------|--------------------------|
--------------------------|--7--7--7--7--7--7--7--7--|
--5--5--5--5--5--5--5--5--|--------------------------|


  E  E  E  E  E  E  E  E     E  E  E  E  E  E  E  E
--------------------------|--------------------------|
--------------------------|--------------------------|
--------------------4--4--|--5--5--5--5--5--5--5--5--|
--5--5--5--5--7--7--------|--------------------------|


  E  E  E  E  E  E  E  E     E  E  E  E  E  E  E  E
--------------------------|--------------------------|
--------------------------|--------------------------|
--------------------------|--7--7--7--7--7--7--7--7--|
--5--5--5--5--5--5--5--5--|--------------------------|


  E  E  E  E  E  E  E  E     E  E  E  E  E  E  E  E
--------------------------|--------------------------|
--------------------------|--------------------------|
--------------------------|--5--5--5--5--5--5--5--5--|
--5--5--5--5--7--7--5--5--|--------------------------|


  E  E  E  E  E  E  E  E     E  E  E  E  E  E  E  E
--------------------------|--------------------------|
--------------------------|--------------------------|
--------------------------|--7--7--7--7--7--7--7--7--|
--5--5--5--5--5--5--5--5--|--------------------------|


  E  E  E  E  E  E  E  E     E  E  E  E  E  E  E  E
--------------------------|--------------------------|
--------------------------|--------------------------|
--------------------------|--5--5--5--5--5--5--5--5--|
--5--7--5--7--5--7--5--7--|--------------------------|


  E  E  E  E  E  E  E  E     E  E  E  E  E  E  E  E
--------------------------|--------------------------|
--------------------------|--------------------------|
--------------------------|--2--2--2--2--2--2--2--2--|
--5--5--5--5--5--5--5--5--|--------------------------|


  E  E  E  E  E  E  Q       E  E  E  E  E  E  E  E
-------------------------|--------------------------|
-------------------------|--------------------------|
--7--7--7--7--7--7--7----|--2--2--2--2--2--2--2--2--|
-------------------------|--------------------------|


  E  E  E  E  E  E  Q       Q    Q    Q    Q       W
-------------------------|----------------------|-------------------|
-------------------------|----------------------|-------------------|
--7--7--7--7--7--7--7----|------------4----6----|--7----------------|
-------------------------|--7----7--------------|-------------------|


  W
-------------------||
--L----------------||
--L----------------||
-------------------||

NOTA:

Espero y te ayude en algo esta tab.

Si necesitas una tab en especial, escríbeme o visita...


Duration Legend
---------------
W - whole
H - half
Q - quarter
E - 8th
S - 16th
T - 32nd
X - 64th
. - note dotted
|-n-|  - n-tuplets


Tablature Legend
----------------
L - tied note
x - dead note
g - grace note
(n) - ghost note
> - accentuded note
NH - natural harmonic
AH - artificial harmonic
TH - tapped harmonic
SH - semi harmonic
PH - pitch harmonic
h - hammer on
p - pull off
b - bend
br - bendRelease
pb - preBend
pbr - preBendRelease
brb - bendReleaseBend
n/ - tremolo bar dip
n - tremolo bar dive
-/n - tremolo bar Release up
/n - tremolo bar inverted dip
/n - tremolo bar return
-n - tremolo bar Release down
S - shift slide
s - legato slide
/ -  slide into from below or out of upwards
 -  slide into from above or out of downwards
~ - vibrato
W - wide vibrato
tr - trill
TP - tremolo picking
T - tapping
S - slap
P - pop
< - fade in
^ - brush up
v - brush down
Suggest correction
Give kudos to tab author, rate the tab!
1 2 3 4 5
comments
print report bad tab
1 comment total.
0 reply
ivanrb962 35 Nov 26, 2015 04:46 PM

tiene que terner el formato de tablatura, imposible estudiar algo asi.. hay que parar cada dos segundos para leer en que parte estas tocando.. deberia simplificarla un poco

guest
You may want to rate the tab now too:
select rating
Wanna post a correction for this tab? Suggest correction