Oops, an error
Loading. Please wait.

El Gato López Tab

version 1
version 1

Whole song

Interactive

by Ska-P
457 views 1 this week
no commentswrite comment
1 2 3 4 5
3 more votes to show rating
add to favorites
launch autoscroll
font size
0
reset
how to read this tab
guitar tuner
Autoscroll
slow
fast
+/-
esc
set tempo
stop
COMO ESTAN INBAÑABLES AQUÍ LES TRAIGO OTRA CANCIÓN DE ESTA
FABULOSO GRUPO DE SKA.
ESTA ES LA VERSIÓN 100% CORRECTA CON LA LETRA BAJADA DE
UNA PAGINA DE SKA-P

ACORDES

   C   F   G   D   Dm  A#m
E--3---1---3---5---5---6--
B--5---1---3---7---6---6--
G--5---2---4---7---7---7--
D--5---3---5---7---7---8--
A--3---3---5---5---5---8--
E--3---1---3---5---5---6--

INTRO
C F C G C F D G  < --- EN LA G SOLO ES UN RASGUEO

 C                      F
Él nació en la calle, no pudo elegir
 C                        G
Entre escombros y basuras él tuvo que vivir
 C                          F
La calle le hizo fuerte, allí se rebeló
 G
Y es que, tío, no hay dinero.

¡ES UN GATO OBRERO!

 C                       F
Su madre callejera, su padre siamés
 C                        G
Tiene veinte hermanos en ¡CARABANCHEL!
 C                        F
Busca en la basura algo que comer
 G
Y es que, tío, no hay dinero.

¡ES UN GATO OBRERO!

*RIFF GUITARRA JOXEMI
E----------------------------------------1-----3---
B--------------------------------------------------
G-0--2--3---------0---------0--2--3----------------
D------------3-------------------------------------
A--------------------------------------------------
E--------------------------------------------------

*RIFF GUITARRA PULPUL
A#m F C
A#m F G

López es algo especial
Desde cachorrito ya bailaba ska,
Sus botas, su chaleco y su forma de andar,
No está domesticado, es un gato ska.

 C                           G
SIGUE, sigue, SIGUE, sigue, SIGUE, síguelo
 Dm                         C
SIGUE, sigue, SIGUE, sigue, RESISTE LÓPEZ.  x2

INTRO

 C                     F
Flaco, desnutrido, tiene que comer
 C                       G
Le quita las pelas a los gatos bien
 C                  F
Perros policía van detras de él
 G
Y es que, tío, no hay dinero.

¡VENGA, EL MONEDERO!

 C                         F
La sociedad gatuna no le quiso entender
 C                          G
Por eso se rebela y grita: ¡QUE LES DEN BIEN!
 C                       F
Es un reflejo claro de la sociedad
 G
Y es que, tío, no hay dinero.

¡ES UN GATO OBRERO!

*RIFF GUITARRA JOXEMI
*RIFF GUITARRA PULPUL
López es algo especial
Desde cachorrito ya bailaba ska,
Sus botas, su chaleco y su forma de andar,
No está domesticado, ama la libertad.

 C                           G
SIGUE, sigue, SIGUE, sigue, SIGUE, síguelo
 Dm                         C
SIGUE, sigue, SIGUE, sigue, RESISTE LÓPEZ. X4

E-------------------------------------------------------------
B----------------------------0-1-2-3-----------0--1--0--------
G--2-3-4-5--------------------------------1-2--------------3--
D----------------2-3-4-5--------------------------------------
A-------------------------------------------------------------
E-------------------------------------------------------------

E-------------------------------------------------------------
B------0---------------------0-1-2-3-----------0--1--0--------
G--2-3---5--------------------------------1-2--------------3--
D---------------2-3-4-5---------------------------------------
A-------------------------------------------------------------
E------------------------------------------------------------- X2

E---------------------------------------------------------
B------0---------------------0-1-2-3-----------0----------
G--2-3---5--------------------------------1-2-------------
D---------------2-3-4-5-----------------------------------
A---------------------------------------------------------
E---------------------------------------------------------

E----------------------------------
B----------------------------------
G----------------------------------
D----7--6--5--4--3--------2---7----
A----------------------------------
E----------------------------------

INTRO

*RIFF GUITARRA JOXWMI
*RIFF GUITARA PULPUL
López es algo especial
Desde cachorrito ya bailaba ska,
Sus botas, su chaleco y su forma de andar,
No está domesticado, es un gato ska.

 C                           G
SIGUE, sigue, SIGUE, sigue, SIGUE, síguelo
 Dm                          C
SIGUE, sigue, SIGUE, sigue, RESISTE LÓPEZ. x4

E--------------------------------
B--------------------------------
G--------------------------------
D----7--6--5--4--3---------7-----
A------------------------7-------
E--------------------------------

ESPEREN MAS CANCIONES DE SKA-P
SALUDOS A TODOS LOS INBAÑABLES DE GUADALAJARA
SI QUIEREN CANCIONES DE SKA-P AGREGENME s_e_b_a_s_1010@
CON GUSTO SE LAS PASARE
Suggest correction
Give kudos to tab author, rate the tab!
1 2 3 4 5
comments
print report bad tab
guest
Wanna post a correction for this tab? Suggest correction