Oops, an error
Loading. Please wait.

El Imperio Caerá Bass Tab

version 1
version 1

Whole song

Interactive

126 views 1 this week
no commentswrite comment
1 2 3 4 5
3 more votes to show rating
add to favorites
launch autoscroll
font size
0
reset
guitar tuner
×
Best way to learn
"El Imperio Caerá"
Autoscroll
slow
fast
+/-
esc
set tempo
stop
Bueeeeeeeeeno,
es la primera canción que saco,creo que está dentro de todo bien.

Trompetas(dos veces):

 C      G    Am    Em     F      D       G
G----------------------------------------------------------------------
D--2-5-2---------------9----7-10-7-4-7-4---------2-3-4-----------------
A-3------2-5-2---7-7-10-10-8------5-------2-3-4-5----------------------
E-------3-----5-8-8----------------------3-----------------------------


Voz:

Esto va dos veces

Se repite la historia se alternan los sucios imperios....

    C               G
G----------------------------------------------------------------------
D---------2-3-2--------------------------------------------------------
A--3--3-5-------5---2-3-5--2-3-5---------------------------------------
E----3------------3-------3--------------------------------------------

Puente:

El imperio romano se derrumbó...
  F       G     C        Am   F     G      C  (acá queda muerto en el C)
G------------------5-4--------------------------------------------------
D--3-2-0---------------7-5-----3-2-0------------------------------------
A--------3---0-2-3---------0---------3--0-2-3---------------------------
E----------3---------------------------3--------------------------------

Vuelve a trompetas

 C      G    Am    Em     F      D       G
G----------------------------------------------------------------------
D--2-5-2---------------9----7-10-7-4-7-4---------2-3-4-----------------
A-3------2-5-2---7-7-10-10-8------5-------2-3-4-5----------------------
E-------3-----5-8-8----------------------3-----------------------------


Voz:

    C               G
G----------------------------------------------------------------------
D---------2-3-2--------------------------------------------------------
A--3--3-5-------5---2-3-5--2-3-5---------------------------------------
E----3------------3-------3--------------------------------------------


Puente:

  F       G     C        Am   F     G      C  (acá la guitarra hace 7,
en el bajo por una octava)
G------------------5-4---------------------------555--------------------
D--3-2-0---------------7-5-----3-2-0------------------------------------
A--------3---0-2-3---------0---------3--0-2-3-3-------------------------
E----------3---------------------------3--------------------------------

otra vuelta más

  F       G     C        Am   F     G      C (En la última cambia a F-G)
G------------------5-4--------------------------------------------------
D--3-2-0---------------7-5-----3-2-0------------------------------------
A--------3---0-2-3---------0---------3--0-2-3---------------------------
E----------3---------------------------3------1-1-1-1-3-3-3-3-----------


Estribillo:
Toca tónicas,no hay problema

  C                        G
AMERICANS,THE EMPIRE WILL FALL
                 Am
THE EMPIRE WILL FALL
                  F
THE EMPIRE WIL FALL

Trompetas

 C      G    Am    Em     F      D       G
G----------------------------------------------------------------------
D--2-5-2---------------9----7-10-7-4-7-4---------2-3-4-----------------
A-3------2-5-2---7-7-10-10-8------5-------2-3-4-5----------------------
E-------3-----5-8-8----------------------3-----------------------------

Acá entra el otro puente...

Toca siempre tónicas,en redondas en la primer vuelta,después acelera

Sus horribles tentáculos los puedes ver
Am                     Em                    F C               G
en cualquier guerra ilegal controlando el poder junto a Israel
C                G
Libre comercio bajo su interés
    Am                   Em                  F  C                       G
sus perros de Europa los saben defender muy bien, al resto, que os den!

Solo:
tocá las tónicas de estos acordes,traten de ubicarse:

C-G-Am-F-C-G-Am-Em-F-G-C.

y finalmente ,repite el estribillo hasta el final.

todo lo que pude hacer,cualquier duda puteada o nueva amistad
fausto_riva@

suerte cheeeeeeeeeee
Suggest correction
Give kudos to tab author, rate the tab!
1 2 3 4 5
comments
print report bad tab
guest
You may want to rate the tab now too:
select rating
Wanna post a correction for this tab? Suggest correction