Oops, an error
Loading. Please wait.

El Imperio Caerá Tab

version 1
version 1

Whole song

Interactive

46 views 1 this week
no commentswrite comment
1 2 3 4 5
3 more votes to show rating
add to favorites
launch autoscroll
font size
0
reset
how to read this tab
guitar tuner
×
Best way to learn
"El Imperio Caerá"
Autoscroll
slow
fast
+/-
esc
set tempo
stop
Intro: C-G-Am-Em-F-D-G x2

     C                                          G
 Se repite la historia, se alternan los sucios imperios
   C                                       G
 Ninguno fue bueno y más tarde o temprano cayó
     F               G             C                     Am
 El imperio romano se derrumbó, más tarde, el imperio español
F                 G                      C
 Y los yankees caerán, no serán la excepción

SKA!!!!!!!!

Intro: C-G-Am-Em-F-D-G

     C                                  G
 Conquistan países, imponen su pobre cultura
    C                                    G
 Saquean recursos sembrando pobreza y rencor
     F                     G            C                 Am
 Manipulan los medios de información privándonos de la verdad
F              G               C     C7
 Sus bases militares nos vigilarán

       F                        G
 Pero no ha habido imperio y nunca lo habrá
      C                   Am
 Que aguante la fuerte presión
F               Fm                   G
 De los pueblos unidos contra el invasor

     C5                    G5
AMERICANS, THE EMPIRE WILL FALL
                 A5
THE EMPIRE WILL FALL
                 F5
THE EMPIRE WILL FALL

     C5                    G5
AMERICANS, THE EMPIRE WILL FALL
                 A5
THE EMPIRE WILL FALL
              F5
EL IMPERIO CAERÁ


Intro: C-G-Am-Em-F-D-G x2

       C5                G5
Sus horribles tentáculos los puedes ver
A5                     E5                    F5 C5              G5
En cualquier guerra ilegal controlando el poder junto a Israel
C5               G5
Libre comercio bajo su interés
    A5                   E5                  F5 C5                     G5
Sus perros de Europa los saben defender muy bien, al resto, que os den!

Solo: C5-G5-A5-F5-C5-G5-A5-E5-F5-G5-C5.

E|-5b--5b--5b--5b--5b--5b--5---5b--5b--5b--5b--5b--5b-5-----------------|
B|-7---7---7---7---7---7-------7---7---7---7---7---7--------------------|
G|----------------------------------------------------------------7-9-10|
D|-------------------------------------------------------7--9-10--------|
A|----------------------------------------------------------------------|
E|----------------------------------------------------------------------|

E|----------------------------------------------------------------------|
B|-8--10*---8--6--5---3----8--6--5---3----3---5--------3---5------------|
G|----------5--5--5---4----5--5--5---4----4---5---5----4---5----5----12-|
D|------------------------------------------------7-------------7-------|
A|----------------------------------------------------------------------|
E|----------------------------------------------------------------------|

E|----------------------------------------------------------------------|
B|----------------------------------------------------------------------|
G|12-12-12-12-12-12-12-12-12-12-12-12-12-12-12---13--13--13--13--13--13-|
D|----------------------------------------------------------------------|
A|----------------------------------------------------------------------|
E|----------------------------------------------------------------------|

E|----------------------------------------------------------------------|
B|----------------------------------------------------------------------|
G|13-13-13-13-13-13-13-13-13-13---17--17--17--17--17--17--17--17--17--17|
D|----------------------------------------------------------------------|
A|----------------------------------------------------------------------|
E|----------------------------------------------------------------------|

E|----------------------------------------------------------------------|
B|----------------------------------------------------------------------|
G|-17--17--17--17--17--17--21-21-21-21-21-21--19-19-19-19-19-19-17-17-17|
D|----------------------------------------------------------------------|
A|----------------------------------------------------------------------|
E|----------------------------------------------------------------------|

E|----------------------------------------------------------------------|
B|----------------------------------------------------------------------|
G|-17---10--9--7----12--10--9----14--12--10---------9--10--12---12*-----|
D|---------------10-----------12------------14-12-----------------------|
A|----------------------------------------------------------------------|
E|----------------------------------------------------------------------|


     C5                    G5
AMERICANS, THE EMPIRE WILL FALL
                 A5
THE EMPIRE WILL FALL
                 F5
THE EMPIRE WILL FALL

     C5                    G5
AMERICANS, THE EMPIRE WILL FALL
                 A5
THE EMPIRE WILL FALL
              F5 F5
EL IMPERIO CAERÁ

     C5                    G5
AMERICANS, THE EMPIRE WILL FALL
                 A5
THE EMPIRE WILL FALL
                 F5
THE EMPIRE WILL FALL

     C5                    G5
AMERICANS, THE EMPIRE WILL FALL
                 A5
THE EMPIRE WILL FALL
              F5 F5
EL IMPERIO CAERÁ

G#5-A#5--C5
A---ME-RICANS
Suggest correction
Give kudos to tab author, rate the tab!
1 2 3 4 5
comments
print report bad tab
guest
You may want to rate the tab now too:
select rating
Wanna post a correction for this tab? Suggest correction