Oops, an error
Loading. Please wait.

España Bass Tab

94 views 1 this week
no commentswrite comment
1 2 3 4 5
3 more votes to show rating
add to favorites
launch autoscroll
font size
0
reset
guitar tuner
Autoscroll
slow
fast
+/-
esc
set tempo
stop
Help us to improve Ultimate-Guitar.com Take our survey!
×
Album: El vals del obrero
Tabulaba por: juancirilo

Intro:

G --------------------------------------     X 4
D --------------------------------------
A --0-1-2--2---------0-1-2--2-----------
E -----------3--3-2-----------3--3-2----

Verso:

G ------------------------------------------------------------------------     X 1
D ----7-----------------------7----------------------7--------------------
A ------7------5-7-5------------7-----5-7-5------------7-----5-7-5--------
E --5------5-7-------7-6----5-----5-7-------7-6----5-----5-7-------7-6----

G -----------------------     X 1
D ----7------------------
A ------7----------------
E --5-----5-7-7-7-7-7----

G -----------------------------------------------------------------------      X 1
D ----7----------------------7----------------------7--------------------
A ------7-----5-7-5------------7-----5-7-5------------7-----5-7-5--------
E --5-----5-7-------7-6----5-----5-7-------7-6----5-----5-7-------7-6----

G -----------------------     X 1
D ----7------------------
A ------7----------------
E --5-----5-7-7-7-7-7----

Pre Coro:

G ----------------------------------------------------------------------     X 2    
D ----------------------------------------------------------------------
A ----------------------------------------------------------------------
E --0-5-6-7-0-5-6-7-0-5-6-7-0-5-6-7--0-3-4-5-0-3-4-5-0-3-4-5-0-3-4-5----

Coro:

G ------------------------------------------------     X 2      
D ------------------------------------------------
A --2-2-2-2-2-------------------------------------
E -------------5-5-5-5-5--3-3-3-3--3-2-2-2-2-2----

Intermedio:

G ----------------------------------------------------     X 1
D ----------------------------------------------------
A --2-2----------------------2-2----------------------
E -------3-3-3--2-2-2-2-2---------3-3-3--2-2-2-2-2----


G ------------------------------------------------     X 1
D ------------------------------------------------
A --2-2-2-2-2-------------------------------------
E -------------5-5-5-5-5--3-3-3-3-3--2-2-2-2-2----

G ----------------------------------------------------     X 1
D ----------------------------------------------------
A --2-2-2-2-2-----------------------------------------
E -------------5-5-5-5-5--3-3-3-3-3--2-3-2-3-2-0-2----


***Orden***

- Intro
- Verso
- Pre Coro
- Coro 
- Intermedio
- Verso
- Pre Coro
- Coro
- Intermedio
Suggest correction
Give kudos to tab author, rate the tab!
1 2 3 4 5
comments
print report bad tab
guest
You may want to rate the tab now too:
select rating
Wanna post a correction for this tab? Suggest correction