Oops, an error
Loading. Please wait.

Kémalo Bass

version 1
version 1

Whole song

Interactive

by Ska-P
102 views 1 this week
no commentswrite comment
1 2 3 4 5
3 more votes to show rating
add to favorites
×
Save as Personal and add changes to this tab that will be seen only by you. Learn more ›
×
You can save this tab as Personal to edit and correct it or add notes. All changes will be seen only by you. Learn more »
save as personal
new!
launch autoscroll
font size
0
reset
guitar tuner
Autoscroll
slow
fast
+/-
esc
set tempo
stop
'Asesinos del visón...kémalo, kémalo'

G------------------------------------
D------------------------------------
A-2----------------------------------
E----------------------3-------2-----(x3)

'El negocio es peletero...vamos a exterminar'

G---------------------------------
D---------------------------------
A-----2---------------------------
E--------------------------12s2---

'Es la degeneracion...'

G------------------------------------
D---0-4-0--------------0-4-0---------
A-2------------------2-----------0-1-
E---------3-4-5-4-2----------3-4-----(x4)

Intervalo:     /rápido/                                        /rápido/
G-4-44-2-----------------4-44-2---(4)---------------4-44-2-----------------4-44-2-----
D--------4-2-/0h2h4p2p0/--------4-----0h2h3-(2h0)----------4-2-/0h2h4p2p0/--------4-2-
A------------------------------------------------(2)----------------------------------
E-------------------------------------------------------------------------------------

'La hermosura de su piel...'

G------------------------------------
D---0-4-0--------------0-4-0---------
A-2------------------2-----------0-1-
E---------3-4-5-4-2----------3-4-----(x2)

'Millones de animales...'

G--------------------------------
D--------------------------------
A-22222222-----------------------
E----------33333333-55555555-2---

'...culpables...debajo de esta piel...'

G----------------------------------------------
D----------------------------------------------
A------5-1------5-1-1------5-1-----5s(3)-5-4-3-
E-12s3-----1--3------1-1-3-----1-3-------------

Solito de bajo:
G-7-4-(7)---7-6-4h6p4-7-4-(7)-----------------------
D---------5------------------5----------------------
A---------------------------------------------------
E-------------------------------3s2---2s10s2-2s10s2-
                     /rápido/
G----------------/------11-11----------/----------------------
D-----------5-4--/12-14-------14-12s(9)/----------------------
A-222-4-2-------------------------------222-4-2-------5s4-----
E---------3-------------------------------------3-3s2-----3s2-

                     /rápido/
G----------------/------11-11----------/------------------
D-----------5-4--/12-14-------14-12s(9)/----------5s4-----
A-222-4-2-------------------------------222-4-2-------5s4-
E---------3-------------------------------------3---------

Intervalo:     /rápido/                                        /rápido/
G-4-44-2-----------------4-44-2---(4)---------------4-44-2-----------------4-44-2-----
D--------4-2-/0h2h4p2p0/--------4-----0h2h3-(2h0)----------4-2-/0h2h4p2p0/--------4-2-
A------------------------------------------------(2)----------------------------------
E-------------------------------------------------------------------------------------

'Te gustó su suavidad...kémalo, kémalo'

G------------------------------------
D------------------------------------
A-2----------------------------------
E----------------------3-------2-----(x3)

'Comprando sufrimiento y muerte sin necesidad'

G---------------------------------
D---------------------------------
A-----2---------------------------
E--------------------------12s2---

'Abrigos asesinos para coquetear...'

G------------------------------------
D---0-4-0--------------0-4-0---------
A-2------------------2-----------0-1-
E---------3-4-5-4-2----------3-4-----(x2)

'Millones de animales...'

G--------------------------------
D--------------------------------
A-22222222-----------------------
E----------33333333-55555555-2---

'...culpables...debajo de esta piel...'

G----------------------------------------------
D----------------------------------------------
A------5-1------5-1-1------5-1-----5s(3)-5-4-3-
E-12s3-----1--3------1-1-3-----1-3-------------

G----------------------------------------------
D----------------------------------------------
A---5-1------5-1-1------5-1-----5s(3)-(1)------
E-3-----1--3------1-1-3-----1-3-----------(1)--

                     /rápido/
G----------------/------11-11----------/----------------------
D-----------5-4--/12-14-------14-12s(9)/----------------------
A-222-4-2-------------------------------222-4-2-------5s4-----
E---------3-------------------------------------3-3s2-----3s2-

                     /rápido/
G----------------/------11-11----------/------------------
D-----------5-4--/12-14-------14-12s(9)/----------5s4-----
A-222-4-2-------------------------------222-4-2-------5s4-
E---------3-------------------------------------3---------

Intervalo:     /rápido/                                        /rápido/
G-4-44-2-----------------4-44-2---(4)---------------4-44-2-----------------4-44-2-----
D--------4-2-/0h2h4p2p0/--------4-----0h2h3-(2h0)----------4-2-/0h2h4p2p0/--------4-2-
A------------------------------------------------(2)----------------------------------
E-------------------------------------------------------------------------------------(x2)

Final

G-4-----4---
D---6-4-----
A-----------
E-----------
Suggest correction
Give kudos to tab author, rate the tab!
1 2 3 4 5
comments
print report bad tab
guest
Wanna post a correction for this tab? Suggest correction