Oops, an error
Loading. Please wait.

Los Hijos Bastardos De La Globalización Bass Tab

278 views 1 this week
no commentswrite comment
1 2 3 4 5
3 more votes to show rating
add to favorites
launch autoscroll
font size
0
reset
guitar tuner
Autoscroll
slow
fast
+/-
esc
set tempo
stop
Help us to improve Ultimate-Guitar.com Take our survey!
×
Bueno, aca les dejo lo que alcanze a sacar, los versos (e intro)
y casi el final
La intro/verso tiene algunos errores..  y el ultimo corte estoy
seguro qe esta al 100%


0:29  /  1:18

G |------------------------------------------------------
D |--------------3-5-------------5-3(0)----5-5-5-0-3-0---
A |--5--5------5---------3--3-----------3----------------
E |----------------------------------------------------3-

G |-----------------------------------
D |------------------------3--3-0-----
A |--------------------3-5--------3---
E |--3--3-5---6-6----5----------------

G |----------------------------------------------------------
D |--------------3-5-------------5-3(0)----5-5-5-0-3-5-5-----
A |--5--5------5---------3--3-----------3--------------------
E |----------------------------------------------------------

G |--------------------------|
D |--------------------------|
A |------------------3-3-3---|
E |--3--3-5---6-6-6----------|


3:06

   Son hijos bastardos de la globalizacion..

G |----------------------------------------------------------
D |--x-x-12-12-x-x-12-12-x-x-12-12-x-x-10-12-10-----10-12----
A |-------------------------------------------------------10-
E |----------------------------------------------------------

   -----12-10------------|
   --12--------12-10-12--|
   ----------------------|
   ----------------------|


  Son los hijos bastardos de la globalizacion

G |----------------------------------------------------------
D |--x-x-12-12-x-x-12-12-x-x-12-12-x-x-10-12-10-----7-9------
A |-----------------------------------------------------10---
E |----------------------------------------------------------

   --------------------------|
   --------------------------|
   --10---10-12-10-----------|
   ----------------13-12-10--|


    Son hijos bastardos de la globalizacion

G |------------------------------------------------------------
D |------------------------------------------------------------| x 4
A |-----------------------7-10-------7-8-10-10---12-10---------|
E |--10-10--10-10--10-10-------8-8-8-------------------13-12---/


Y despues repite varias veces lo mismo pero con estas notas

G |----------------------------------------------------------
D |----------------------------------------------------------| x 4
A |----------------------------------------------------------|
E |--10-10-10-10-10-10-10-10--8-8-8-8-8-8-8--3-3-3-3-3-3-3-3-/


Cuando saque lo qe falta, se los agrego
Espero qe les sirva
Saludos!
Suggest correction
Give kudos to tab author, rate the tab!
1 2 3 4 5
comments
print report bad tab
guest
You may want to rate the tab now too:
select rating
Wanna post a correction for this tab? Suggest correction