Oops, an error
Loading. Please wait.

Ñapa Es Bass Tab

version 2
version 2

Whole song

105 views 1 this week
no commentswrite comment
1 2 3 4 5
3 more votes to show rating
add to favorites
launch autoscroll
font size
0
reset
guitar tuner
Autoscroll
slow
fast
+/-
esc
set tempo
stop
Help us to improve Ultimate-Guitar.com Take our survey!
×
TABS SUPERMEJORADO DE ÑAPA ES...

G||--------------------|--------------------|--------------------|
D||--------------------|--------------------|--------------------|
A||----------0h---1h---|--2------------2----|--------------------|
E||--------------------|--------------------|--3------------x----|

-------------------||
-------------------||
-------------------||
--2----------------||

REPETIR SECCION EN TODO EL INTRO

*** ESTA ES LA ESPAÑA...

||----------4-------------|-----------------------|----------4-------------|
||-------4-----5----5--4--|--------2--4--4--2-----|-------4-----5----5--4--|
||--2---------------------|--------------------5--|--2---------------------|
||------------------------|-----------------------|------------------------|

-------------------------|----------4-------------|-----------------------|
--4--4----2--4--4--2-----|-------4-----5----5--4--|--------2--4--4--2-----|
----------------------5--|--2---------------------|--------------------5--|
-------------------------|------------------------|-----------------------|

----------4-------------|----------------------|----------4-------------|
-------4-----5----5--4--|----4--4--4--4--------|-------4-----5----5--4--|
--2---------------------|----------------------|--2---------------------|
------------------------|----------------------|------------------------|

-----------------------|----------4-------------|-------------------------|
--------2--4--4--2-----|-------4-----5----5--4--|--4--4----2--4--4--2-----|
--------------------5--|--2---------------------|----------------------5--|
-----------------------|------------------------|-------------------------|

----------4-------------|-----------------------|----------4-------------|
-------4-----5----5--4--|--------2--4--4--2-----|-------4-----5----5--4--|
--2---------------------|--------------------5--|--2---------------------|
------------------------|-----------------------|------------------------|

----------------------|--------------------------|--------------------------|
----4--4--4--4--------|--5--5--5--5--5--5--2--4--|--5--5--2--4--5--5--2--5--|
----------------------|--------------------------|--------------------------|
----------------------|--------------------------|--------------------------|

--------------------------|--------------------------|
--4--4--2--3--4--4--2--3--|--4--4--2--3--4--4--2--4--|
--------------------------|--------------------------|
--------------------------|--------------------------|

--------------------------|--------------------------|
--5--5--5--5--5--5--2--4--|--5--5--2--4--5--5--2--5--|
--------------------------|--------------------------|
--------------------------|--------------------------|

--------------------------|----------------------|--------------------------|
--4--4--2--3--4--4--2--3--|--4-------------------|--------------------------|
--------------------------|-------0----1----2----|--2--2--2--2--2--2--2--2--|
--------------------------|----------------------|--------------------------|

--------------------------|--------------------------|------------------------|
--------------------------|--------------------------|--4----4----5h-3--4h-2--|
--0--0--0--0--0--0--0--0--|--------------------------|------------------------|
--------------------------|--3--3--3--3--3--3--3--3--|------------------------|

--------------------------|--------------------------|
--------------------------|--------------------------|
--2--2--2--2--2--2--2--2--|--0--0--0--0--0--0--0--0--|
--------------------------|--------------------------|

--------------------------|----------------------|-----------------------|
--------------------------|----------------------|-----------------------|
--------------------------|----------------------|--2----2---------------|
--3--3--3--3--3--3--3--3--|----2--2--2--2--------|--------------3--3--3--|

----------------------|-----------------------|----------------------|
----------------------|-----------------------|----------------------|
----------------------|--2----2---------------|----------------------|
--2--2--2--2----------|--------------3--3--3--|--2--2--2--2----------|

--------------------------|--------------------------|
--------------------------|--------------------------|
--2--2--2--2--2--2--2--2--|--0--0--0--0--0--0--0--0--|
--------------------------|--------------------------|

--------------------------|------------------------|--------------------------|
--------------------------|--4----4----5h-3--4h-2--|--------------------------|
--------------------------|------------------------|--2--2--2--2--2--2--2--2--|
--3--3--3--3--3--3--3--3--|------------------------|--------------------------|

--------------------------|--------------------------|----------------------|
--------------------------|--------------------------|----------------------|
--0--0--0--0--0--0--0--0--|--------------------------|----------------------|
--------------------------|--3--3--3--3--3--3--3--3--|--2----3----2----3----|

---------------------|R------L--||
---------------------|-E----E--O||
---------------------|--P-T-----||
--2----0----2--------|---I------||

COSAS / = SLIDE
h = HOLD
X = MUTE SILENCIO GOLPE

ESTE BASS ES MAS WALKING, Pero en caso de que no te agrade puedes tomar el modelo anterior

MAS INFO SOBRE MI Y MIS TABS


HI-FI BASSTECH
Efrencho's Addiction
Suggest correction
Give kudos to tab author, rate the tab!
1 2 3 4 5
comments
print report bad tab
guest
You may want to rate the tab now too:
select rating
Wanna post a correction for this tab? Suggest correction