Oops, an error
Loading. Please wait.

Niño Soldado Tab

version 1
version 1

Whole song

250 views 1 this week
no commentswrite comment
1 2 3 4 5
3 more votes to show rating
add to favorites
launch autoscroll
font size
0
reset
how to read this tab
guitar tuner
Autoscroll
slow
fast
+/-
esc
set tempo
stop
Help us to improve Ultimate-Guitar.com Take our survey!
×
D5        A5                G5     A5-D5
   Fui a nacer donde no hay nada
          A5          G5                   A5-D5
Tras esa línea que separa el bien del mal
          A5          G5     A5-D5
Mi tierra se llama miseria
        A5        G5
Y no conozco la palabra libertad


D5            A5            G5     D5
   Fui secuestrado en una guerra
      A5        G5             D5
Torturado y preparado pa matar
              A5          G5     D5
Me han convertido en una bestia
             A5           G5
Soy sólo un niño que no tiene identidad
B5                       A5-D5  A5-D5   B5
   Me han obligado a disparar
                      D5        B5
Me han enseñado cómo asesinar
                       A5-D5  A5-D5   B5
Me han obligado a mutilar
                    D5
En un infierno terrenal


D5      A5                    B5
¡EH! NO TU INDIFERENCIA NO TIENE PERDÓN
G5                     D5
 ¿QUIÉN TE ROBÓ EL CORAZÓN?
         A5           G5
NO TE LEVANTES DEL SILLÓN
D5      A5                    B5
¡EH! NO TU INDIFERENCIA NO TIENE PERDÓN
G5                     D5
 ¿QUIÉN TE ROBÓ EL CORAZÓN?
      A5        G5
APAGA LA TELEVISIÓN


D A G A x4

E|-------7------------|
B|----3---------------|
G|-2------------------|


Una pistola en mi cabeza
D5                 A5           G5
  Me está obligando a asesinar a mi papá
D5      A5          G5     D5
  Soy una máquina de guerra
            A5         G5
Mi dedo aprieta ese gatillo sin mirar
B5                        A5-D5 A5-D5   B5
   Me han obligado a disparar
                      D5        B5
Me han enseñado cómo asesinar
                       A5-D5 A5-D5     B5
Me han obligado a mutilar
                     D5
En un infierno terrenal


D5      A5                    B5
¡EH! NO TU INDIFERENCIA NO TIENE PERDÓN
G5                     D5
 ¿QUIÉN TE ROBÓ EL CORAZÓN?
         A5           G5
NO TE LEVANTES DEL SILLÓN
D5      A5                    B5
¡EH! NO TU INDIFERENCIA NO TIENE PERDÓN
G5                     D5
 ¿QUIÉN TE ROBÓ EL CORAZÓN?
      A5        G5
APAGA LA TELEVISIÓN

D5 A5 G5 A5

Solo
E|--5-3-2-0--3-2-0----5---3---0-3-----5-3-2-0--3-2-0--------------|
B|-----------------3----3---3-------------------------3-3--3b-----|
G|----------------------------------------------------------------|
D|----------------------------------------------------------------|
A|----------------------------------------------------------------|
E|----------------------------------------------------------------|

E|---------------------0------------2--5--3--2--0---0--2----------|
B|--3---0-3----------0------------0---------------3--------3--3b--|
G|----2-----2-4-2--2-----2-4-2--2---------------------------------|
D|----------------------------------------------------------------|
A|----------------------------------------------------------------|
E|----------------------------------------------------------------|
B5                        A5-D5 A5-D5   B5
   Me han obligado a disparar
                      D5        B5
Me han enseñado cómo asesinar
                       A5-D5 A5-D5     B5
Me han obligado a mutilar
                     D5
En un infierno terrenal


D5      A5                    B5
¡EH! NO TU INDIFERENCIA NO TIENE PERDÓN
G5                     D5
 ¿QUIÉN TE ROBÓ EL CORAZÓN?
         A5           G5
NO TE LEVANTES DEL SILLÓN
D5      A5                    B5
¡EH! NO TU INDIFERENCIA NO TIENE PERDÓN
G5                     D5
 ¿QUIÉN TE ROBÓ EL CORAZÓN?
      A5        G5
APAGA LA TELEVISIÓN

D A G A x4 SKA
D5 A5 G5 A5 D5 A5 G5
G5 A5 G5 A5 G5 A5 D5
Suggest correction
Give kudos to tab author, rate the tab!
1 2 3 4 5
comments
print report bad tab
guest
You may want to rate the tab now too:
select rating
Wanna post a correction for this tab? Suggest correction