Oops, an error
Loading. Please wait.

Niño Soldado tab

version 2
version 2

Whole song

by Ska-P
104 views 1 this week
no commentswrite comment
1 2 3 4 5
3 more votes to show rating
add to favorites
×
Save as Personal and add changes to this tab that will be seen only by you. Learn more ›
×
You can save this tab as Personal to edit and correct it or add notes. All changes will be seen only by you. Learn more »
launch autoscroll
font size
0
reset
how to read this tab
guitar tuner
edit
Autoscroll
slow
fast
+/-
esc
set tempo
stop
Estos son los solos q' hacen con la trompeta y la guitarra
y es 100% correcto:
Se las dejo:
Y dice el de trompeta:

A)
E------2-5-7-5--5-7-9-10--10-9-7-5--
B--3-3------------------------------
G-----------------------------------
D-----------------------------------
A-----------------------------------
E-----------------------------------

E------2-5-7-5--5-5-7-2-3--15-14-15-17--
B--3-3----------------------------------
G---------------------------------------
D---------------------------------------
A---------------------------------------
E---------------------------------------

E------2-5-7-5--5-7-9-10--10-9-7-5--
B--3-3------------------------------
G-----------------------------------
D-----------------------------------
A-----------------------------------
E-----------------------------------

E------2-5-7-5--5-5-7-2-3--15-14-15-17--
B--3-3----------------------------------
G---------------------------------------
D---------------------------------------
A---------------------------------------
E---------------------------------------

El solo de guitarra es asi:
se las dejo:

B)
E--5-3-2-0--3-2-0----5---5---0-3--
B-----------------3----3---3------
G---------------------------------
D---------------------------------
A---------------------------------
E---------------------------------

E--5-3-2-0--3-2-0-----------
B-----------------3-3--3/--
G---------------------------
D---------------------------
A---------------------------
E---------------------------

E----------------------0-------------2--
B--3---0-3----0------0------0------0----
G----2------2---2--2------2---2--2------
D---------------------------------------
A---------------------------------------
E---------------------------------------

E--5-3-2-0----0-2--------/--
B-----------3-----3----3/---
G---------------------------
D---------------------------
A---------------------------
E---------------------------


Gracias por todo y si no te sale escribeme a
flaco_rock21@
para entregarles el tabs para el GUITAR PRO
q' es genial y hay si q'
va con todo.
Lo hice yo y lo envie a una pág.
q' les voy a decir si es
q' me mandan un mail.

Las notas son:

Verso I:
RE - LA - SOL - LA
RE - LA - SOL - LA
RE - LA - SOL - LA
RE - LA - SOL

RE - LA - SOL - LA
RE - LA - SOL - LA
RE - LA - SOL - LA
RE - LA - SOL

Precoro:
SIm - LA - RE
SIm - RE
SIm - LA - RE
SIm - LA

Coro:
RE - LA - SIm - SOL
RE - LA - SOL
RE - LA - SIm - SOL
RE - LA - SOL

Aqui va el solo A) el de la trompeta

Verso II:
RE - LA - SOL - LA
RE - LA - SOL - LA
RE - LA - SOL - LA
RE - LA - SOL

Precoro:
SIm - LA - RE
SIm - RE
SIm - LA - RE
SIm - LA

Coro:
RE - LA - SIm - SOL
RE - LA - SOL
RE - LA - SIm - SOL
RE - LA - SOL

aqui va el solo B) de guitarra:

Precoro:
SIm - LA - RE
SIm - RE
SIm - LA - RE
SIm - LA

Coro:
RE - LA - SIm - SOL
RE - LA - SOL
RE - LA - SIm - SOL
RE - LA - SOL

Aqui va denuevo el solo A) el de la trompeta

Y ahora nada:

FIN

muchas gracias por todo. un saludo pa' mis broders:
LEPE Y MURGA.
creo vasta pero solo falta el detalle
de la letra q' no quize escribirla pero esta igual la letra.

            
            
Suggest correction
Creating personal tab
Creating personal tab
You can edit any tab online and save it as your Personal.

You can edit, replace or remove any tab part or add personal notes – all changes will be seen only by you.

Personal tabs can be accessed anytime from any device, even offline.
Learn more »
Give kudos to tab author, rate the tab!
1 2 3 4 5
comments
print report bad tab
guest
Wanna post a correction for this tab? Suggest correction