Oops, an error
Loading. Please wait.

Sexo Y Religión Bass

version 2
version 2

Whole song

Interactive

by Ska-P
109 views 1 this week
no commentswrite comment
1 2 3 4 5
3 more votes to show rating
add to favorites
launch autoscroll
font size
0
reset
guitar tuner
×
Best way to learn
"Sexo Y Religión"
Autoscroll
slow
fast
+/-
esc
set tempo
stop
Intro

G---------------
D---------------
A----2----------
E-0-------------

Verso 'Cada día...'

G-------------------------------------
D-------------------------------------
A------------------44444444-----------
E-00000000-4444444----------5555554h5-

G---------------------------------------
D---------------------------------------
A----------------------7----7----7----7-
E-00000000-77777777-55---55---55---55---

'La religión...'

G-------------------------------------
D-------------------------------------
A------------------44444444-----------
E-00000000-4444444----------5555554h5-

G---------------------------------------
D---------------------------------------
A----------------------7----7----7------
E-00000000-77777777-55---55---55---5555-

'Ayayayayay...'

G-------------------------------------
D-------------------------------------
A-3-33333---------345-55555-----------
E---------3-33333-----------7-5-55555-

G------------------
D------------------
A-3-33333----------
E---------3-33333--

'Disfruta de la vida...'

G-----------------------------------
D-----------------------------------
A-0-0-0-0-0-0-0-0-2-3-3-3-3-2-2-2-2-
E-----------------------------------

G---------------------------------------
D---------------------------------------
A------------------44444444h5-----------
E-00000000-4444444------------5555554h5-

G---------------------------------------
D---------------------------------------
A----------------------7----7----7----7-
E-00000000-77777777-55---55---55---55---

'Hoy en día...'

G-------------------------------------
D-------------------------------------
A------------------44444444-----------
E-00000000-4444444----------5555554h5-

G---------------------------------------
D---------------------------------------
A----------------------7----7----7----7-
E-00000000-77777777-55---55---55---55---

'He aquí...'

G---------------------------------------
D---------------------------------------
A------------------44444444h5-----------
E-00000000-4444444------------5555554h5-

G-----------------------------------------------
D-----------------------------------------------
A----------------------7----7----7----777-7-5-2-
E-00000000-77777777-55---55---55---55-----------

'Ayayayayay...'

G------------------------------------------
D--------3-5-5555555---------------7-5---5-
A-3-3333------------5-5555h7-----------7---
E----------------------------7-777---------

G--------------------
D--------3-5-5555555-
A-3-3333-------------
E--------------------

'Disfruta de la vida...'

G----------------------------------------
D----------------------------------------
A-0-0-0-0-0-0-0-0-2-3-3-3-3-2-2-2-2-0----
E-------------------------------------32-

G------------------------------------------------------------------------------
D------------------------------------------------------------------------------
A------------------44444444h5---------------------------------7----7----7------
E-00000000-4444444------------5555554h5--00000000-77777777-55---55---55---5555-(x2)

'Sexo...'

G----------------------------------
D----------------------------------
A-33----------55-------------------
E------3-----------4h5-5-4h5-5-4h5-(x3)

G------------
D------------
A-33---------
E------3-----


G-----------------------------------
D-----------------------------------
A-0-0-0-0-0-0-0-0-2-3-3-3-3-2-2-2-2-
E-----------------------------------

'Nadie...'

G---------------------------------------
D---------------------------------------
A------------------44444444h5-----------
E-00000000-4444444------------5555554h5-

G---------------------------------------
D---------------------------------------
A----------------------7----7----7------
E-00000000-77777777-55---55---55---5555-

'Y si luchas..'

G---------------------------------------
D---------------------------------------
A------------------44444444h5-----------
E-00000000-4444444------------5555554h5-

G---------------------------------------
D---------------------------------------
A----------------------7----7----7-5----
E-00000000-77777777-55---55---55-----7--

'Ayayayayay...'

G-------------------------------------
D-------------------------------------
A-3-33333---------3-5-55555-----------
E---------3-33333-----------7-5-55555-(x2)

'Disfruta de la vida...'

G----------------------------------------
D----------------------------------------
A-0-0-0-0-0-0-0-0-2-3-3-3-3-2-2-2-2-0----
E-------------------------------------32-

G---------------------------------------
D---------------------------------------
A------------------44444444h5-----------
E-00000000-4444444------------5555554h5-

G---------------------------------------
D---------------------------------------
A----------------------7----7----7------
E-00000000-77777777-55---55---55---5555-

G---------------------------------------
D---------------------------------------
A------------------44444444h5-----------
E-00000000-4444444------------5555554h5-

G-------------------------------------------
D-------------------------------------------
A----------------------7----7----7----7-5---
E-00000000-77777777-55---55---55---55-----7-

'Sexo...'

G----------------------------------
D----------------------------------
A-33----------55-------------------
E------3-----------4h5-5-4h5-5-4h5-(x4)

G-----------------------------------------
D-----------------------------------------
A-3-3-3-3---------5-5-5-5-----------------
E---------3-3-3-3---------4h5-5-4h5-5-4h5-(x2)

G---------------5s7-7-7-5h7-5-----------------------
D-------3-5-5-5---------------75775h7-------3-5-5-5-
A-3-3-3-------------------------------3-3-3---------
E---------------------------------------------------

'Esta es tu cabeza...'

G-----------------------------------
D-----------------------------------
A-0-0-0-0-0-0-0-0-2-3-3-3-3-2-2-2-2-
E-----------------------------------(x2)

Final  ...en paz'

G------------------
D------------------
A------------------
E---3--2---0-------
Suggest correction
Give kudos to tab author, rate the tab!
1 2 3 4 5
comments
print report bad tab
guest
You may want to rate the tab now too:
select rating
Wanna post a correction for this tab? Suggest correction