Oops, an error
Loading. Please wait.

Si Lo Sé Me Meo Tab

7 views 1 this week
no commentswrite comment
1 2 3 4 5
3 more votes to show rating
add to favorites
launch autoscroll
font size
0
reset
how to read this tab
guitar tuner
×
Best way to learn
"Si Lo Sé Me Meo"
Autoscroll
slow
fast
+/-
esc
set tempo
stop
*Octavada con armónico de pulgar
/ arrastrado
_ Ligado


El que va después del estribillo
     SOL=G                 RE=D              MI=E                 DO=C          SOL             RE            MI      DO
 T E|---------------------|-----------------|--------------------|-------------|---------------|-------------|-------|---|
   a|---------------------|-----------------|--10-10---10-10---10|-------------|----5-----5----|-------------|------5|---|
 A d|---------------------|-----------------|--------------------|--12-12-10-10|5_4---5_4---5_4|5_4_5/9-7-7-2/5-5-4--|---|
   g|-------7-7---7-7---7-|------7*-7*-7-7-8|9-------9-------9---|9------------|---------------|-------------|-------|---|
 B b|-3/8-8-----8-----8---|8-7-5------------|--------------------|-------------|---------------|-------------|-------|---|
   e|---------------------|-----------------|--------------------|-------------|---------------|-------------|-------|---|


El que va al final cuando dice "solo fui a mear" y hace el punteo entre medio  va el 1 el 2 el 1 y el 2

1)   SOL RE  MI              DO
 T E|---|---|---------------|-----|
   a|---|---|---------------|-----|
 A d|---|---|---------------|-----|
   g|---|--0_2_0-----2_0----|2-0--|
 B b|---|---|----3-0-----1_0|-----|
   e|---|---|---------------|-----|

2)   SOL RE  MI                 DO
 T E|---|---|------------------|--------|
   a|---|---|------------------|--------|
 A d|---|---|------------------|--------|
   g|---|---|------12-12--12-12|------12|
 B b|---|---|15-15-------------|13_12---|
   e|---|---|------------------|--------|


Viernes son las doce, y yo estoy que me duermo,
tanto fumeteo que me ha entrado el muermo.
Tomaremos otra, que es viernes por la noche,
siempre me dejan sopa dentro del coche.

A las cuatro de la mañana ¿donde se habrán metido?
Que me estoy meando, que estoy muerto de frío,
no sé donde estoy, ¿de quien es el coche rojo?
Que me fui a mear y al volver me metí en otro.

Solo fui a mear, y casi acabo en la comisaría.
Solo fui a mear, y me metí en un coche un policía.

Me tiré a dormir, a ver si vienen pronto,
la puerta se abrió y se metió un maromo
salimos de allí en un momento zumbando,
le dije, ¡colega! ¿Por que habéis tardado tanto?

Cuando mira para atrás emitió un grito de espanto,
me sacó del coche a empujón y puñetazos,
Yo traté de explicar como había pasado todo,
como iba a saber que el coche era de un mono.

Solo fui a mear, y casi acabo en la comisaría.
Solo fui a mear, y me metí en un coche un policía.

Yo le repetía y el ni puto caso,
que si abre bien las piernas, arriba las manos.
Todo es un error, hágame usted caso,
y es que por la noche
todos los gatos son pardos.

Menos mal que aparecieron, todos los colegas,
con el coche rojo igual que el del madero.
Él se echó a reír y me trajo una cerveza,
tío no me jodas, que no es pa sacar un tema.

Solo fui a mear, y casi acabo en la comisaría.
solo fui a mear, y me metí en un coche policía.
Suggest correction
Give kudos to tab author, rate the tab!
1 2 3 4 5
comments
print report bad tab
guest
You may want to rate the tab now too:
select rating
Wanna post a correction for this tab? Suggest correction