Oops, an error
Loading. Please wait.

Simpático Holgazán Bass

version 1
version 1

Whole song

Interactive

by Ska-P
106 views 1 this week
no commentswrite comment
1 2 3 4 5
3 more votes to show rating
add to favorites
launch autoscroll
font size
0
reset
guitar tuner
×
Best way to learn
"Simpático Holgazán"
Autoscroll
slow
fast
+/-
esc
set tempo
stop
SIMPATICO HOLGAZAN

INTRO
G|-----------------------------------------2------------|
D|---------2---2-1---1-0---0---------2---2---5-2---2-5--|
A|-0-2-3-5---3-----3-----3---0-2-3-5---3---------3------|
E|------------------------------------------------------|

VERSO                  FIN1  2   3       FIN 4
G|---------------------|---|---|---|---------------------|
D|---------------------|---|---|---|---------------------|
A|---------3-----------|-5-|-7-|-5-|---------3-----------|
E|-555/3/5---5-555/3/5-|---|---|---|-555/3/5---5-555/3/5-|

PRE CHORUS (su majestad.....)   *=veces necesarias
G|------------------------------|-----------------------|
D|------------------------------|-----------------------|
A|-3*-------------3--------3----|-3*-----7-7-7-7-7-7-7--|
E|----3*--55-3-55---55-3-5---5--|----3*-----------------|


esto es kasi todo el tema despues lo pongo kon el estribillo
si ay alguna duda bue eskriban a Chucky_punk@
Suggest correction
Give kudos to tab author, rate the tab!
1 2 3 4 5
comments
print report bad tab
guest
You may want to rate the tab now too:
select rating
Wanna post a correction for this tab? Suggest correction