Oops, an error
Loading. Please wait.

Vergüenza Tab

version 1
version 1

Whole song

Interactive

94 views 1 this week
no commentswrite comment
1 2 3 4 5
3 more votes to show rating
add to favorites
launch autoscroll
font size
0
reset
how to read this tab
guitar tuner
Autoscroll
slow
fast
+/-
esc
set tempo
stop
Help us to improve Ultimate-Guitar.com Take our survey!
×
RIFF 1
  I parte
         B                  A        G           B                  A        G
E -------------------------------------------------------------------------------
B -------------------------------------------------------------------------------
G -------------------------------------------------------------------------------
D -------------------------------------------------------------------------------
A ---5---5----5---5----7--5-4----5-4-2-------5---5----5---5----7--5-4----5-4-9---
E -7---7--------7--------------------------7---7--------7------------------------
  II parte
         B                  A        G           B                  A        G F#
E -------------------------------------------------------------------------------
B -------------------------------------------------------------------------------
G -------------------------------------------------------------------------------
D -------------------------------------------------------------------------------
A ---5---5----5---5----7--5-4----5-4-2-------5---5----5---5----7--5-4----5-4-2--0
E -7---7--------7--------------------------7---7--------7------------------------

RIFF 2
  I parte
1ra guit E -----------------------------------------------
       B --5--3-2--0--5--3-2--0--5--3-2-3-2-3/7---------
       G -----------------------------------------------
2da guit D ------------------------9-------11-12-11-9-7-6-
       A --9-9--------9-9--------7-------9--10-9--7-5-4-
       E --7-7--------7-7-------------------------------
  II parte
1ra guit E -------------------------------------------
       B --5--3-2--0--5--3-2--0--5--3-2-3-0-2-3-0-2-
       G -------------------------------------------
2da guit D ------------------------9--------11-12-9-11
       A --9-9--------9-9--------7--------9--10-7-9-
       E --7-7--------7-7---------------------------

BRIDGE
   B       B            G      F#    B       B            E      F#
E --------------------------------------------------------------------
B --------------------------------------------------------------------
G --------------------------------------------------------------------
D --------------------------------------------------------------------
A -----9------4--5--7--7/10----9---------9-----4--5--7--7/10----9-----
E -7-------7-------------------------7-------7------------------------

SOLO
  I parte
   B        D     G           F#   B        D     C#   C
E -7-----7--5----------------------7-----7--10----9----8----
B ----7----------8-7-5-7-8-10-7-------7---------------------
G ----------------------------------------------------------
D ----------------------------------------------------------
A ----------------------------------------------------------
E ----------------------------------------------------------
  II parte
   B        D     G           F#           B      D        D C# C B A# A D C
E -7-----7--5-----7------------------------7-------------------------
B ----7--------7-----8--7--9-3-2-3-5--7------7----7-5-3---3/7--------
G -------------------------------------------------------------------
D -------------------------------------------------------------------
A -------------------------------------------------------------------
E -------------------------------------------------------------------


INTRO
F#, G, F#

RIFF 1

VERSO
             B                       A              G                  F#
 Entre el Atlántico y el mar Mediterráneo hay una tierra de mar y mucho sol 
             B                    A              G                  F#
 que desde antaño se viene practicando una asquerosa y sucia tradición
         B                A                   G                       F#
 un individuo vestido de payaso tortura y martiriza hasta la muerte a un animal
            B                  A               G                 F#
 y el graderío estalla de locura cuando el acero anuncia su final.

RIFF 1 (I parte nada mas)

VERSO
 Banderilleros sedientos de violencia van torturando sin ninguna compasión
 los picadores prosiguen su matanza acentuando punzadas de dolor
 malherido, embiste con bravura contra el frío del acero que destroza su interior
 agonizando en un charco de sangre el puntillero remata la función


PRE-CORO
F#, G, F#
         Festejo
F#, G, F#
         Criminal
F#, G, F#
         Vergüenza!!!
F#, G, F#


CORO
    B A   G                   F#
 Torero, eres la vergüenza de una nación
    B A   G                      F#
 Torero, eres la violencia en televisión
    B A   G               F#
 Torero, eres asesino por vocación
    B A   G                   F#
 Torero, me produce asco tu profesión

RIFF 2
RIFF 1 (I parte nada mas)

VERSO
 Llamar cultura al sadismo organizado, a la violencia, a la muerte o al dolor
 es un insulto a la propia inteligencia, al desarrollo de nuestra evolución.
 Tu indiferencia les hace poderosos, manifiesta tu repulsa a la fiesta criminal
 no colabores con un juego de dementes, taurinos al código penal.

PRE-CORO
CORO

BRIDGE
(primero el lead 1 vez solo, y luego todo 2 veces mas)

SOLO

PRE-CORO

END
F# G F# G F# G
F# G A A# B    B 


Acordes:
   F# G  B  A  D  C# C  A# E
E -2--3--2--5--5--4--3--6--0-
B -2--3--3--5--7--6--5--6--0-
G -3--4--4--6--7--6--5--7--1-
D -4--5--4--7--7--6--5--8--2-
A -4--5--2--7--5--4--3--8--2-
E -2--3--x--5--x--x--x--6--0-
Suggest correction
Give kudos to tab author, rate the tab!
1 2 3 4 5
comments
print report bad tab
guest
You may want to rate the tab now too:
select rating
Wanna post a correction for this tab? Suggest correction