Oops, an error
Loading. Please wait.

Vergüenza Bass

version 1
version 1

Whole song

Interactive

by Ska-P
350 views 9 this week
no commentswrite comment
1 2 3 4 5
3 more votes to show rating
add to favorites
launch autoscroll
font size
0
reset
guitar tuner
×
Best way to learn
"Vergüenza"
Autoscroll
slow
fast
+/-
esc
set tempo
stop
INTRO
G --------------------------
D --------------------------
A --------------------------
E -2-2--2-3-3--3-2--2--5--3-

RIFF 1
G -------------------------------------------------------------------
D -------------------------------------------------------------------
A -------------------------------------------------------------------
E -7-7-7-7-7-7-7-7-7-7-7-7-7-7-7-7-5-5-5-5-5-5-5-5-5-3-3-3-3-3-3-3-3-

VERSO
G -------------------------------------------------
D -------------------------------------------------
A ----9--7--5-----7--5--4-----5--4--2-----2--4--5--
E -7-----------5-----------3-----------2-----------

PRE-CORO
G -----------------------
D -----------------------
A -----------------------
E -2-2--2-3-3--3-2-------

CORO
G ---------------------------------------------------------
D ---------------------------------------------------------
A ---------------------------------------------------------
E -7--7-7--7-7-7-5--5-5--5-5-5-3--3-3--3-3-3-2--2-2--2-2-2-

RIFF 2
G ----------------------------------------------------------------
D ----------------------------------------------------------------
A ---------------7----9-10-9-7-5-4---------------7----9-10-7-9----
E -7-7----7-7----------------------7-7----7-7---------------------

BRIDGE
G ----------------------------------------------------------------------------------------
D ----------------------------------------------------------------------------------------
A ----------------------------------------------------------------------------------------
E -7-7-7-7-7--7-7-7-7-7--3-3-3-3-3--2-2-2-2-2--7-7-7-7-7--7-7-7-7-7--0-0-0-0-0--2-2-2-2-2-

SOLO
G ------------------------------------------------------------------------------------------------------------
D ------------------------------------------------------------------------------------------------------------
A --------------5--5-5--5-5-5-------------------------------------------5--5-5--5-5-5-4-4-4-4-4-4-3-3-3-3-3-3-
E -7--7-7--7-7-7---------------3--3-3--3-3-3-2--2-2--2-2-2-7--7-7--7-7-7--------------------------------------

G ----------------------------------------------------------------------------------------------------
D ----------------------------------------------------------------------------------------------------
A --------------5--5-5--5-5-5-------------------------------------------5--5-5--5-5-5-5-4-3-2-1-0-5-4-
E -7--7-7--7-7-7---------------3--3-3--3-3-3-2--2-2--2-2-2-7--7-7--7-7-7------------------------------

END
G ------------------------------------------------------------------10---
D ------------------------------------------------------------------9----
A -----------------------------------------------------------------------
E -2-2-2-2-3-3-3-3-2-2-2-2-3-3-3-3-2-2-2-2-3-3-3-3-2--3--5--6--7----7----
Suggest correction
Give kudos to tab author, rate the tab!
1 2 3 4 5
comments
print report bad tab
guest
You may want to rate the tab now too:
select rating
Wanna post a correction for this tab? Suggest correction