Oops, an error
Loading. Please wait.

Vergüenza Bass

version 2
version 2

Whole song

Interactive

by Ska-P
158 views 3 this week
no commentswrite comment
1 2 3 4 5
3 more votes to show rating
add to favorites
×
Save as Personal and add changes to this tab that will be seen only by you. Learn more ›
×
You can save this tab as Personal to edit and correct it or add notes. All changes will be seen only by you. Learn more »
save as personal
new!
launch autoscroll
font size
0
reset
guitar tuner
Autoscroll
slow
fast
+/-
esc
set tempo
stop
Bajo
                                                             
G||-------------------------------|-------------------------|
D||-------------------------------|-------------------------|
A||-------------------4/5/7/7-5-5-|--4----------------------|
E||--2-2--2-3-3--3-2--------------|----2--2-3-3--3-2--------|


                                                            
-------------------------------|---------------------------|
-------------------------------|---------------------------|
-------------------4/5/7/7-5-5-|--4----------------8--9----|
--2-2--2-3-3--3-2--------------|----2--2-3-3--3-2----------|


                                                        3x                    
|---------------------------|---------------------------||-------------------|
|*--------------------------|--------------------------*||-------------------|
|*--2--2--2--2--2--2--2--2--|--0--0--0--0--------------*||-------------------|
|---------------------------|--------------2--2--2--2---||--1----------------|


                                                      
--------------------------|-----------------3--6--3--|
-----4--0--------2--------|--5--4--2--0--------------|
--2--------2--0-----4--0--|--------------------------|
--------------------------|--------------2-----------|


                                                                               
--4-----------------------|------------------------|--------------------------|
-----4--0--------2--------|--5--------4--4-4--4-4--|-----4--0--------2--------|
-----------2--0-----4--0--|------------------------|--2--------2--0-----4--0--|
--------------------------|------------------------|--------------------------|


                                                                                
-----------------3--6--3--|--4-----------------------|-------------------------|
--5--4--2--0--------------|-----4--0--------2--------|--5--4--2--0-------------|
--------------------------|-----------2--0-----4--0--|-------------------------|
--------------2-----------|--------------------------|--------------2/---14----|


                                                                              
|---------------------------|---------------------------||-------------------|
|*--------------------------|--------------------------*||-------------------|
|*--2--2--2--2--2--2--2--2--|--0--0--0--0--------------*||-------------------|
|---------------------------|--------------2--2--2--2---||--2----------------|


                                                      
--------------------------|-----------------3--6--3--|
-----4--0--------2--------|--5--4--2--0--------------|
--2--------2--0-----4--0--|--------------------------|
--------------------------|--------------2-----------|


                                                       
--4-----------------------|---------------------------|
-----4--0--------2--------|--5--4--2--0---------------|
-----------2--0-----4--0--|--------------4-4---4-4-4--|
--------------------------|---------------------------|


                                                      
--------------------------|-----------------3--6--3--|
-----4--0--------2--------|--5--4--2--0--------------|
--2--------2--0-----4--0--|--------------------------|
--------------------------|--------------2-----------|


                                                                              3x
--4-----------------------|----------------------||---------------------------||
-----4--0--------2--------|--5--4--2--0----------||*-------------------------*||
-----------2--0-----4--0--|----------------------||*-------------------------*||
--------------------------|----------------------||---2-2--2-3-3--3-2---------||


                                                                   3x
---------------------------|---------------------------------------||
*--------------------------|--------------------------------------*||
*--2--2--2--2--0--0--0--0--|--------------------------------------*||
---------------------------|--2--2--2--2--2--2--0--0--0--0--0--0---||


                                                                      
---------------------------||---------------------------------------||
--------------------------*||--------------------------------------*||
--------------------------*||--------------------------------------*||
--2--2--2--2----0--0-0-0---||--2--2--2--2--2--2--0--0--0--0--0--0---||


                                                                     
----------------------|---------------------|-----------------------|
----------------------|---------------------|-----------------------|
----------------------|---------------------|-----------------------|
--2----2/-1--------1--|--8--8--------8------|--7------3-4--3-3--2-1-|


                                                                            
----------------------|-----------------------||---------------------------|
----------------------|-----------------------||*--------------------------|
----------------------|-----------------------||*--2--2--2--2--2--2--2--2--|
--8-------8---8/---0--|--7------3-4--3-3--2-1-||---------------------------|


                                                                            
---------------------------||-------------------|--------------------------|
--------------------------*||-------------------|-----4--0--------2--------|
--0--0--0--0--------------*||-------------------|--2--------2--0-----4--0--|
--------------2--2--2--2---||--2----------------|--------------------------|


                                                                               
-----------------3--6--3--|--4-----------------------|------------------------|
--5--4--2--0--------------|-----4--0--------2--------|--5--------4--4-4--4-4--|
--------------------------|-----------2--0-----4--0--|------------------------|
--------------2-----------|--------------------------|------------------------|


                                                      
--------------------------|-----------------3--6--3--|
-----4--0--------2--------|--5--4--2--0--------------|
--2--------2--0-----4--0--|--------------------------|
--------------------------|--------------2-----------|


                                                                              3x
--4-----------------------|----------------------||---------------------------||
-----4--0--------2--------|--5--4--2--0----------||*-------------------------*||
-----------2--0-----4--0--|----------------------||*-------------------------*||
--------------------------|----------------------||---2-2--2-3-3--3-2---------||


                                                                   3x
---------------------------|---------------------------------------||
*--------------------------|--------------------------------------*||
*--2--2--2--2--0--0--0--0--|--------------------------------------*||
---------------------------|--2--2--2--2--2--2--0--0--0--0--0--0---||


                                                                      
---------------------------||---------------------------------------||
--------------------------*||--------------------------------------*||
--------------------------*||--------------------------------------*||
--2--2--2--2----0--0-0-0---||--2--2--2--2--2--2--0--0--0--0--0--0---||


                                                            
--------------------|-------------------|------------------|
--------------------|-------------------|------------------|
--------------------|----------2--------|------------------|
--2--------0--------|-------------------|------------------|


                                                                     
--------------------|------------------|----------------------------|
--------------------|------------------|----------------------------|
--2--------------2--|------------------|----------------------------|
--------------------|------------------|--2-2-2-2-2----2-2-2-2-2----|


                                                           
-----------------------------|----------------------------|
-----------------------------|----------------------------|
-----------------------------|----------------------------|
--2-2-2-2-2----2-2-2-2-2-1---|--2-2-2-2-2----2-2-2-2-2----|


                                                         
---------------------------|----------------------------|
---------------------------|----------------------------|
---------------------------|----------------------------|
--2--2-2-2----2--2-2-2-1---|--2-2-2-2-2----2-2-2-2-2----|


                                                                                
-----------------------------|--------------------------|----------------------|
-----------------------------|--------------------------|----------------------|
-----------------------------|--------------------------|----------------------|
--2-2-2-2-2----2-2-2-2-2-1---|--2--2-2-2----2--2-2-2----|--2--2-2-2------------|


                                                                       3x
|------------------------------|---------------------------------------||
|*--4----2----4----5--5--5--5--|--------------------------------------*||
|*-----------------------------|--------------------------------------*||
|------------------------------|--2--2--2--2--2--2--0--0--0--0--0--0---||


                                                                        
-----------------------------||---------------------------------------||
----------------------------*||--------------------------------------*||
----------------------------*||--------------------------------------*||
--2-2-2--2--2--0-0-0--0--0---||--2--2--2--2--2--2--0--0--0--0--0--0---||


                                                       2x
--1--0--------------2--1--||---------------------------||
--------4--3--2--1--------||*-------------------------*||
--------------------------||*-------------------------*||
--------------------------||---2-2--2-3-3--3-2---------||


                                                                  
----------------------------------|------------------------------|
----------------------------------|------------------------------|
----------------------------------|------------------------------|
--2-2-2-2-3-3-3-3-2-2-2-2-3-3-3-3-|--2-2-2-2-3-3-3-3-2--3--5--6--|


                                              
-------------------|----|----|----|----|----||
-------------------|----|----|----|----|----||
-------------------|----|----|----|----|----||
--7----------------|----|----|----|----|----||
Suggest correction
Give kudos to tab author, rate the tab!
1 2 3 4 5
comments
print report bad tab
guest
Wanna post a correction for this tab? Suggest correction