Oops, an error
Loading. Please wait.

Ningún Valor Bass Tab

43 views 1 this week
no commentswrite comment
1 2 3 4 5
3 more votes to show rating
add to favorites
launch autoscroll
font size
0
reset
guitar tuner
×
Best way to learn
"Ningún Valor"
Autoscroll
slow
fast
+/-
esc
set tempo
stop
Esta canción es fácil en comparación con otras de Skalariak:

Intro:

G-----------------------------------
D----------------------------------- Se repite esto pero sin
A------3-3-6---3-6-3---------------- el fa y el fa#
E-1-2-----------------3-3-6---3-6-3-

El verso es igual a la intro

Cuando dice: 'Auténticas locuras...'

G--------------------------------------
D--------------------------------------
A-3-3-6--3-6--3-6-3--------------------
E--------------------3-3-6--3-6--3-----

Para pasar al estribillo esto:

G-----------
D---5-3-----
A-------6-5-
E-6---------

Estribillo: 'No tendrían valor...'

G------------------
D---5--------------
A-3---6-3----5-----
E----------3---6-3-x3

  la primera vez      la 2ª
G------------------|-----------
D------------------|-----------
A---3----------5---|-----3-----
E-1---4-1--3-6---6-|-1-4---4-1-

Comienza de nuevo el verso incluyendo el FA y el FA# del principio.
En el segundo estribillo se hace dos veces también pero solo con la
primera terminación.
Luego viene el solo de saxo (me parece), aquí el bajo hace lo mismo que en el estribillo.
De nuevo el estribillo y termina con esto:

G-----
D-----
A-3-3-
E-----

Letra:

En estos momentos en que pierdo el tiempo
de los buenos momentos me acuerdo
mi mente cansada se diluye despierto
en la silla firme se cae mi cuerpo
autenticas locuras son nuestra compañía
mucha excitación como también dolor
por que sin la trizteza en esta vida
las alegrías no tendrían valor
No tendrían valor, ningún valor
Harto de decir tantas tonterías
de intentar olvidar ese tiempo pasado
minutos diciendo lo que no debía
luego arrepentido si analizo lo que hablamos
dejo llevar mi mano pa' calmar el alma mia
escribo unas lineas recordandando tu calor
por que sin la soledad en esta vida
tu compañía no tendría valor.

Eso es todo, espero que les sirva CHAOOOOO!!!
Suggest correction
Give kudos to tab author, rate the tab!
1 2 3 4 5
comments
print report bad tab
guest
You may want to rate the tab now too:
select rating
Wanna post a correction for this tab? Suggest correction