Oops, an error
Loading. Please wait.

Oligarquía Bass Tab

82 views 1 this week
no commentswrite comment
1 2 3 4 5
3 more votes to show rating
add to favorites
launch autoscroll
font size
0
reset
guitar tuner
Autoscroll
slow
fast
+/-
esc
set tempo
stop
Help us to improve Ultimate-Guitar.com Take our survey!
×
Ojalá les sirva esta tablatura por que le dediqué mucho tiempo
y me rompí la cabeza sacándola, no es tanto pero cuesta sacarlo, aquí esta:
aaah no pierdan nunca la escala Do menor
Intro: (0:00)

G----5-3-----3------------------------5-3-----------------------------
D----------6---6-5--------3-6-5-3-6------6-5-3------5-3---------------
A--3-----3----------3-5-6-----------------------6-5-----6-5-3---------
E---------------------------------------------------------------6-4-3-

continuación: con saxo, trompeta y trombón (0:10)

G------------------------------------------------------
D------------------5------5-6-3----------------------5-
A--3---3-1----6------3--3--------6-5--3---3-1---6------
E----3------4---3------3----------------3------4---3---

G------------------ Se repite dos veces
D--6-3---6-5-3----- toda esta parte
A------5-------6-5-
E------------------

Esto es lo que hacen los vientos: (0:10)

G---------------------------------------------------------
D----5-3-1-3-1------5-3-1-3----5-3-1-3-1----0-1-1-1-3-1-0-
A--3-----------3--3-----------3-----------3---------------
E---------------------------------------------------------x2

Verso: Es lo mismo que en la parte con vientos (0:30)

La canción sigue de esta forma hasta llegar a la parte donde dice:
?El hambre crea el descontrol...? (1:50) aqui se hace lo mismo que en el intro

?Pedimos pan, pedimos vino...? (2:10)

G----5---3---------------5---8---10---------
D------------6------------------------------
A--3---1---------------3---6---8----10------
E----------4---3--3-6-------------------3-3-

G------------------
D--5-3------------- Todo dos veces
A------6-5-3-----5- (Desde ?pedimos pan...?)
E------------3-6---

Luego se repite lo de los vientos hasta el final y temina así:

G-------
D-------
A--1--3-
E-------
Suggest correction
Give kudos to tab author, rate the tab!
1 2 3 4 5
comments
print report bad tab
guest
You may want to rate the tab now too:
select rating
Wanna post a correction for this tab? Suggest correction