Oops, an error
Loading. Please wait.

Quién Nos Ha Robado? Bass

26 views 1 this week
no commentswrite comment
1 2 3 4 5
3 more votes to show rating
add to favorites
launch autoscroll
font size
0
reset
guitar tuner
×
Best way to learn
"Quién Nos Ha Robado?"
Autoscroll
slow
fast
+/-
esc
set tempo
stop
G-------------0--0-0--0-0-0---------------------------|
D------------------------------3--3--3-3-3-3--1-0-----| X4
A-1--1--1-1-1-------------------------------------3---|
E-----------------------------------------------------|


G-----------------------------------------------------------------|
D----0-------------------3-1-0---0---0-----------0--3-1-0---------|
A--1---1-------1-------1-------3---1---1-------1----------3-1-----|X2
E--------3-1-4---3-1-3-------------------3-1-3-----------------4--|

G-------------0--0-0--0-0-0---------------------------|
D------------------------------3--3--3-3-3-3--1-0-----| X2
A-1--1--1-1-1-------------------------------------3---|
E-----------------------------------------------------|

G-------------0--0-0--0-0-0------------------|
D------------------------------3--3--3-3-3-3-|
A-1--1--1-1-1--------------------------------|
E--------------------------------------------|

G-------------0--0-0--0-0-0---------------------------|
D------------------------------3--3--3-3-3-3--1-0-----|
A-1--1--1-1-1-------------------------------------3---|
E-----------------------------------------------------|


G-----------------------------------------------------------------|
D----0-------------------3-1-0---0---0-----------0--3-1-0---------|
A--1---1-------1-------1-------3---1---1-------1----------3-1-----|X2
E--------3-1-4---3-1-3-------------------3-1-3-----------------4--|


G-------------0--0-0--0-0-0---------------------------|
D------------------------------3--3--3-3-3-3--1-0-----| X2
A-1--1--1-1-1-------------------------------------3---|
E-----------------------------------------------------|

G-------------0--0-0--0-0-0------------------|
D------------------------------3--3--3-3-3-3-|
A-1--1--1-1-1--------------------------------|
E--------------------------------------------|

G-------------0--0-0--0-0-0---------------------------|
D------------------------------3--3--3-3-3-3--1-0-----|
A-1--1--1-1-1-------------------------------------3---| X2
E-----------------------------------------------------|


G-----------------0-0---0-0-0--0---------------------------------|
D--------------------------------3-3--3-3-3--3-1-1--1-1-1-1-1-0--| X4
A--1-1---1-1-1--1------------------------------------------------|
E----------------------------------------------------------------|


G-------------0--0-0--0-0-0---------------------------|
D------------------------------3--3--3-3-3-3--1-0-----|
A-1--1--1-1-1-------------------------------------3---| X2
E-----------------------------------------------------|


G-------------0--0-0--0-0-0------------------|
D------------------------------3--3--3-3-3-3-|
A-1--1--1-1-1--------------------------------|
E--------------------------------------------|

G-------------0--0-0--0-0-0---------------------------|
D------------------------------3--3--3-3-3-3--1-0-----|
A-1--1--1-1-1-------------------------------------3---| X3
E-----------------------------------------------------|

G-------------0--0-0--0-0-0-------------------------------------|
D------------------------------3--3--3-3-3-3--1-0---------------|
A-1--1--1-1-1---------------------------------------------------|
E----------------------------------------------------8-6...1----|

G---------------------------------------------|
D--------------------3-3-3--1-1----1-1-0-3----|
A---1-1-1-------------------------------------|  X2
E-----------1-1-0-1---------------------------|

G-------------0--0-0--0-0-0---------------------------|
D------------------------------3--3--3-3-3-3--1-0-----| X4
A-1--1--1-1-1-------------------------------------3---|
E-----------------------------------------------------|


G-------------0--0-0--0-0-0---------------------------|
D------------------------------3--3--3-3-3-3--1-0-----| X3
A-1--1--1-1-1-------------------------------------3---|
E-----------------------------------------------------|

G-------------0--0-0--0-0-0----------
D------------------------------3--3--
A-1--1--1-1-1------------------------
E------------------------------------


-----------3-0-----3-0-----------------|
3-3-3-3--------3-------3-----1-1-3-----|
-----------------------------------1---|
---------------------------------------|
Suggest correction
Give kudos to tab author, rate the tab!
1 2 3 4 5
comments
print report bad tab
guest
You may want to rate the tab now too:
select rating
Wanna post a correction for this tab? Suggest correction