Oops, an error
Loading. Please wait.

La Unión Chords

10 views 1 this week
no commentswrite comment
1 2 3 4 5
3 more votes to show rating
add to favorites
launch autoscroll
font size
0
reset
transpose
0
reset
display chords
guitar tuner
Autoscroll
slow
fast
+/-
esc
set tempo
stop
Help us to improve Ultimate-Guitar.com Take our survey!
×
Que dia es hoy, dia voy, dia estoy hoy aqui
Vas a vivir, vas a ver, vas a reproducir
Es nuestra voz, nuestra voz, nuestra revolucion
Que grites hoy, grites voy, grite en esta cancion!

D|-----------------------------------
A|-0-0-3-5--0-0-5-7--0-0-3-5--0-0-6-5    4 veces
E|-----------------------------------

Am        F      C       G
Parece quieto, pero se va a mover
Am        F      C       G
Parece oscuro, pero va a amanecer
Am        F      C       G
Parece lejos, pero vamos a llegar
Am        F      C       G
Parece muerto, pero va a resusitar

(Coro)
F   G   G     F#    F
La luz, somos la union
F   G   G     F#    F
La voz, revolucion
F    G         E                   F    E            G
Gritar, hasta morir que esta vez, ¡no!, no callare, ¡No!

D|-----------------------------------
A|-0-0-3-5--0-0-5-7--0-0-3-5--0-0-6-5    4 veces
E|-----------------------------------

Am        F      C       G
Parece quieto, pero se va a mover
Am        F      C       G
Parece oscuro, pero va a amanecer
Am        F      C       G
Parece lejos, pero vamos a llegar
Am        F      C       G
Parece muerto, pero va a resusitar

(Coro)
F   G   G     F#    F
La luz, somos la union
F   G   G     F#    F
La voz, revolucion
F    G         E                   F    E            G
Gritar, hasta morir que esta vez, ¡no!, no callare, ¡No!


(Solo 2 veces)

D|---------------|---------------|---------------|-----------2-1-
A|0--------------|0--------------|0--------------|0--------------
E|--0-0-1-0-0-1-0|--0-0-1-0-1-0--|--0-0-1-0-0-1-0|--0-0-1-0------

D|---------------|---------------|---------------|-----------1-0-
A|0--------------|0--------------|0--------------|0--------------
E|--0-0-1-0-0-1-0|--0-0-1-0-3-0--|--0-0-1-0-0-1-0|--0-0-1-0------

(Coro)
F   G   G     F#    F
La luz, somos la union
F   G   G     F#    F
La voz, revolucion
F    G         E                   F    E            G
Gritar, hasta morir que esta vez, ¡no!, no callare, ¡No!


D|-----------------------------------
A|-0-0-3-5--0-0-5-7--0-0-3-5--0-0-6-5    4 veces
E|-----------------------------------

(termina con Am)
Suggest correction
Give kudos to tab author, rate the tab!
1 2 3 4 5
comments
print report bad tab
guest
You may want to rate the tab now too:
select rating
Wanna post a correction for this tab? Suggest correction