Oops, an error
Loading. Please wait.

Confesión Tab

31 views 1 this week
no commentswrite comment
1 2 3 4 5
3 more votes to show rating
add to favorites
launch autoscroll
font size
0
reset
how to read this tab
guitar tuner
×
Best way to learn
"Confesión"
Autoscroll
slow
fast
+/-
esc
set tempo
stop
Fig.1
G -9-10-9-7-5-7-9-----5-7-9-5-9-----5-7-9-10-9-7---
D ----------------7-9-----------7-9----------------

G -7-9-7-5-4-5-7---7-9-7-5-4-5-7--7-7-7-7-7-9-10---
D -------------------------------------------------


G -9-10-9-7-5-7-9-----5-7-9-5-9--9-9-9-9-9-10-12-10
D ----------------7-9------------------------------

G -----5-7-9-10-9-----5-7-9-5-7-----4-5-7-5-4-2----
D -7-9------------7-9-----------5-7----------------


Fig.1
¡Ké bién ke te conocí!, ¡Ké bién ke estés junto a mí.
Tú dás kaña a mi vida
Rompes mi monotonía, tú me dás energía,¡Eres pura dinamita!
Kuando yo no bién estoy a mi lado siempre estás y das kolor
y alegría.
¡Ké bién ke te conocí!, ¡Ké bién!, Ke estés junto a mí
Tú dás kaña a mi vida

A - E - E - A
Piensa ke todo és posible si los dos keremos,
no pasa nada malo si se está de akuerdo
Deja fluir en tu mente los buenos recuerdos,
ke para los problemas en la vida de sobra hay

A - E - E - A
Te enseñaré tó lo bueno, lo bueno te ofrezko,
te mostraré a disfrutar a aprovechar el tiempo,
Ke el renkor y el odio no ván a buen puerto.
Desecha tó lo malo, intensifica tó lo bueno


A - F - D - Bb - C#
¡¡Hey, estoy akí, eskútxame!!!!
¡¡¡Valora lo ke te ofrezco!!
¡¡Hey, estoy akí, miramé!!!
¡¡Valora lo ke te ofrezco!!


A - E - E - A
Si algún día no estás me kedaré lo bueno.
Fuera lo malos rollos, los malos pensamientos,
Vive el presente y disfruta de kada momento.
No te preocupes ke la vida son dos días son

Fig.1


   A     E     F     Bb    C#     D
e -5-   -7-   ----   ---   ---   ---
B -5-   -7-   ----   ---   ---   ---
G ---   ---   -10-   ---   -6-   -7-
D ---   ---   -10-   -8-   -6-   -7-
A ---   ---   -8--   -8-   -4-   -5-
E ---   ---   ----   -6-   ---   ---


..Bueno, esta kancioncilla se la dediko con todo mi korazon
a mi mujercita Panxita ke la amo demasiado!! =D..
  ..Ahi tienen ke ver donde vuelven a incluir la Fig.1..
Suggest correction
Give kudos to tab author, rate the tab!
1 2 3 4 5
comments
print report bad tab
guest
You may want to rate the tab now too:
select rating
Wanna post a correction for this tab? Suggest correction