Oops, an error
Loading. Please wait.

Caña Seca Y Un Membrillo Tab

version 2
version 2

Whole song

17 views 1 this week
no commentswrite comment
1 2 3 4 5
3 more votes to show rating
add to favorites
launch autoscroll
font size
0
reset
how to read this tab
guitar tuner
Autoscroll
slow
fast
+/-
esc
set tempo
stop
Help us to improve Ultimate-Guitar.com Take our survey!
×
Intro: B - A - E


E|--7~-------5-4-----------------------|
B|---------------7-5---5-7--5-4--------|
G|-------------------6----------6-4----|
D|----------------------------------6--|
A|-------------------------------------|
E|-------------------------------------|

E|---------12----12-----12-----------------|
B|--12-14~----14~----14----14-14-12-14-12~-|
G|-----------------------------------------|
D|-----------------------------------------|
A|-----------------------------------------|
E|-----------------------------------------|

E|--16-16-14~---12-11-12-11-9-7~---------7~--|
B|-------------------------------------5-----|
G|-------------------------------------------|
D|-------------------------------------------|
A|-------------------------------------------|
E|-------------------------------------------|


B       A          E
Negrita yace asustada
B       A          E
la hormiga se le durmió
B       A          E
Dios ya no quiere que baile me dijo
B       A          E
me dijo y me sofocó

B       A          E
Vamos negrita baila hasta el fin
B       A          E
vamos negrita hacelo por mi
B       A          E
vamos negrita baila hasta el fin
B       A          E
vamos negrita hacelo por mi


E|----7~-----5-4---------------------------------|
B|---------------7-5~-----4-5-7-7~----5-4--------|
G|----------------------------------------6-4----|
D|--------------------------------------------4~-|
A|-----------------------------------------------|
E|-----------------------------------------------|

E|-------------------------12----12------------------------|
B|----------4-5-7---12-14~----14~----14-12-14-14-12-14-12~-|
G|------4-6------------------------------------------------|
D|--4-6----------------------------------------------------|
A|---------------------------------------------------------|
E|---------------------------------------------------------|

E|--16-16-14~---12-11-12-11-9-7~---------7~--|
B|-------------------------------------5-----|
G|-------------------------------------------|
D|-------------------------------------------|
A|-------------------------------------------|
E|-------------------------------------------|


B       A          E
La curva no se ha mojado
B       A          E
ni patino mi animal
B       A          E
morena vi tu camisa colgada,
B       A          E
colgada y arrebaté!

B       A          E
Vamos negrita baila hasta el fin
B       A          E
vamos negrita hacelo por mi,
B       A          E
vamos negrita bailá hasta el fin
B       A          E
vamos negrita hacelo por mi


Solo:

E|---------------------------|-------------------------------------------|
B|---------------------------|---7-----7---7---7---7---------------------|
G|-(7)(7)------------7-------|-9---9-9---9---9---9---9-7--7-9-9-7--7--7~-|
D|-(9)(9)-x8 rapido----9-7-9~|---------------------------9--------9-9----|
A|---------------------------|-------------------------------------------|
E|---------------------------|-------------------------------------------|


E|--------------------12----12-----12-----------------|
B|--------12----12-14~---14~----14----14-14-12-14-12~-|
G|--11-13----13---------------------------------------|
D|----------------------------------------------------|
A|----------------------------------------------------|
E|----------------------------------------------------|

E|--16-16-14~---12-11-12-11-9-7~---------7~--|
B|-------------------------------------5-----|
G|-------------------------------------------|
D|-------------------------------------------|
A|-------------------------------------------|
E|-------------------------------------------|


E|-7-7----7-7-5----7/9-7~----12-|-7-7-----5-5-----7/9-7-----12-12~--|
B|------------------------------|-----------------------------------|
G|------------------------------|-----------------------------------|
D|------------------------------|-----------------------------------|
A|------------------------------|-----------------------------------|
E|------------------------------|-----------------------------------|


E|--7-7---5-4------------------------------------------12~-|
B|-------------7-5~-----4-5-7-7~----5-4--------------------|
G|----------------------------------------4/6-6-4~---------|
D|---------------------------------------------------------|
A|---------------------------------------------------------|
E|---------------------------------------------------------|


B       A          E
Fuera pechito dañino
B       A          E
milagro te hará cambiar
B       A          E
un dedalito de caña soplada
B       A          E
y este ritmo zumbador


B       A          E
Vamos negrita baila hasta el fin
B       A          E
vamos negrita hacelo por mí
B       A          E
vamos negrita baila hasta el fin
B       A          E
vamos negrita hacelo por mí


E|----7~---5-4--------------------------------------|
B|-------------7-5~---4-5-7-7~--5-4-----------------|
G|----------------------------------4/6-6-4~--------|
D|-------------------------------------------6-4-6~-|
A|--------------------------------------------------|
E|--------------------------------------------------|

E|-------------------------12----12--------16-16-14-|
B|----------4-5-7---12-14~----14~----14-12----------|
G|------4-6-----------------------------------------|
D|--4-6---------------------------------------------|
A|--------------------------------------------------|
E|--------------------------------------------------|

E|----------12----12------------------------7-|
B|-12-12-14----14----14-14-12-14-12-------5---|
G|--------------------------------------------|
D|--------------------------------------------|
A|--------------------------------------------|
E|--------------------------------------------|


E|-7-7----7-7-5----7/9-7~-----12-|-7-7-----5-5-----7/9-7-----12-12~--|
B|-------------------------------|-----------------------------------|
G|-------------------------------|-----------------------------------|
D|-------------------------------|-----------------------------------|
A|-------------------------------|-----------------------------------|
E|-------------------------------|-----------------------------------|


E|--7-7---5-4------------------------------------------12~-|
B|-------------7-5~-----4-5-7-7~----5-4--------------------|
G|----------------------------------------4/6-6-4~---------|
D|---------------------------------------------------------|
A|---------------------------------------------------------|
E|---------------------------------------------------------|


B       A          E
Tum-tum te agita morena
B       A          E
tu cuerpo se impacientó
B       A          E
Dios ya no me aguanta quieta me dijo
B       A          E
me dijo y me sofocó

B       A          E
vamos negrita baila hasta el fin
B       A          E
vamos negrita hacelo por mí
B       A          E
vamos negrita baila hasta el fin
B       A          E
vamos negrita hacelo por mí


FIN.
Suggest correction
Give kudos to tab author, rate the tab!
1 2 3 4 5
comments
print report bad tab
guest
You may want to rate the tab now too:
select rating
Wanna post a correction for this tab? Suggest correction