Oops, an error
Loading. Please wait.

Caña Seca Y Un Membrillo Tab

version 3
version 3

Whole song

23 views 1 this week
no commentswrite comment
1 2 3 4 5
3 more votes to show rating
add to favorites
launch autoscroll
font size
0
reset
how to read this tab
guitar tuner
×
Best way to learn
"Caña Seca Y Un Membrillo"
Autoscroll
slow
fast
+/-
esc
set tempo
stop
Aclaro que por ahora saque la intro, estoy sacando los otros dos
solos. De todas formas son similares asi que no voy a tardar mucho.

BASE: SI5-LA5-MI5 (de la misma forma que la original de Los Redondos)

INTRO:
1|-7~--7-5-4----------------------
2|-----------7-5-4-7--------------
3|-------------------4~-4-6-4-----
4|----------------------------4/6-
5|--------------------------------
6|--------------------------------

1|-----------------15-----------------------------
2|--------5-7/9/14----14-12-14-12-15-14-12-14-12~-
3|-----4-5----------------------------------------
4|-4-5--------------------------------------------
5|------------------------------------------------
6|------------------------------------------------

1|-14b-14b-14-12-11-12-11-------------|
2|------------------------14-12~-12/0-|
3|------------------------------------|
4|------------------------------------|
5|------------------------------------|
6|------------------------------------|


Espero que les sirva, es mi primer transcripcion.
Vamos los redondos carajo!
Suggest correction
Give kudos to tab author, rate the tab!
1 2 3 4 5
comments
print report bad tab
guest
You may want to rate the tab now too:
select rating
Wanna post a correction for this tab? Suggest correction