Oops, an error
Loading. Please wait.

Canción De Cuna Tab

version 2
version 2

Whole song

32 views 1 this week
no commentswrite comment
1 2 3 4 5
3 more votes to show rating
add to favorites
launch autoscroll
font size
0
reset
how to read this tab
guitar tuner
×
Best way to learn
"Canción De Cuna"
Autoscroll
slow
fast
+/-
esc
set tempo
stop
e---------7-7-7-7--9------------
b-------9------------7^(9)------
g---6-9--------------------9----
d--9----------------------------
a-------------------------------
E-------------------------------

e---------7-7-7-7--9------------
b-------9-------------7^(9)-----
g---6-9-------------------------
d--9----------------------------
a-------------------------------
E-------------------------------

e---------7-7-7-7--9------------
b-------9------------7^(9)------
g---6-9--------------------9----
d--9----------------------------
a-------------------------------
E-------------------------------


e---------7-9-------------------
b-------9-----9-7----9-7-9------
g---6-9-----------9--------9-9--
d--9----------------------------
a-------------------------------
E-------------------------------

Base sobre Mi
Puse un nuevo remache en tu frente,
Aceite fresco en tu corazón
Yo te canto esta canción de cuna
MI             SI7            MI
Duerme niño, mi niño robot.

Corte
   La b--5-4-5-7-5---------------- x2
      g-----------6---------------

   MI G----6-7-8-9-7-8-------------
      d--9---------------9---------

   LA B--5-4-5-7-5---------------- x2
      g-----------6---------------

   SI G---88-66-44-22-11--------
      d------------------5-4-----


Duerme, duérmete mi niño
Duerme, duérmete mi sol
Yo te canto esta canción de cuna
Duerme niño, mi niño robot.
Duerme niño, niño robot
Duerme niño, niño robot.


Facundo Madrid
 Rosario, Argentina 2007
 Cualquier duda, mi mail es iguanadie@
 Un abrazo!
Suggest correction
Give kudos to tab author, rate the tab!
1 2 3 4 5
comments
print report bad tab
guest
You may want to rate the tab now too:
select rating
Wanna post a correction for this tab? Suggest correction