Oops, an error
Loading. Please wait.

Donde Estás? Chords

version 1
version 1

Whole song

38 views 6 this week
no commentswrite comment
1 2 3 4 5
3 more votes to show rating
add to favorites
launch autoscroll
font size
0
reset
transpose
0
reset
display chords
guitar tuner
Autoscroll
slow
fast
+/-
esc
set tempo
stop
Intro:
d g [G-F-Eb]=BASE

BASE
Recorriendo la ciudad

miré sus rostros vacíos

Voy sumergido sobre la multitud
D
buscándote
C
buscándome.
G Bb Eb Bb-C_C#-C-Bb
Quién sos? Quién sos?
G Bb Eb Bb-C_C#-C-Bb
Quién sos? Quién sos?
G Bb Eb Bb-C_C#-C-Bb
Quién Quién Quién sos?
C D
Dónde estás? Dónde estás?

inter
BASE
Otra vez se hizo de día

en la mesa de algún bar

mirando el fondo del vaso vacío
D
buscándote
C
buscándome.
G Bb Eb Bb-C_C#-C-Bb
Quién sos? Quién sos?
G Bb Eb Bb-C_C#-C-Bb
Quién sos? Quién sos?
G Bb Eb Bb-C_C#-C-Bb
Quién Quién Quién sos?
C D
Dónde estás? Dónde estás?

inter=BASE INTRO

inter2: Bb_C-C Bb Bb_A G G
C_Eb G C_Eb D

solo:

|------------------------------------------------------|
|-13-(15)-13-12-13-12-10----11-10----------------------|
|------------------------12-------12-8-----------------|
|------------------------------------------------------|
|------------------------------------------------------|
|------------------------------------------------------|

|------------------------------------10----------------|
|-13-(15)-13-12-13-12-10----11-10----------------------|
|------------------------12-------12-------------------|
|------------------------------------------------------|
|------------------------------------------------------|
|------------------------------------------------------|


BASE
Cómo serán tus ojos?

Cómo será que suena tu voz?

Es tan presente tu ausencia
C
Dónde estás?
D
buscándote
G Bb Eb Bb-C_C#-C-Bb
Quién sos? Quién sos?
G Bb Eb Bb-C_C#-C-Bb
Quién sos? Quién sos?
G Bb Eb Bb-C_C#-C-Bb
Quién Quién Quién sos?
D C
Dónde estás? Dónde estás?



Suggest correction
Give kudos to tab author, rate the tab!
1 2 3 4 5
comments
print report bad tab
guest
You may want to rate the tab now too:
select rating
Wanna post a correction for this tab? Suggest correction