Oops, an error
Loading. Please wait.

Donde Estás? Tab

31 views 1 this week
no commentswrite comment
1 2 3 4 5
3 more votes to show rating
add to favorites
launch autoscroll
font size
0
reset
how to read this tab
guitar tuner
×
Best way to learn
"Donde Estás?"
Autoscroll
slow
fast
+/-
esc
set tempo
stop
Solo 1


     G      F      Eb                 G          F            Eb
E |----------------------------------------------------------------
B |-(8)-8---11-13^-15----13^-13-11-13------------------------------
G |-(7)-------------------------------12~~---7-5-7-3-5---3---------
D |----------------------------------------------------5---5-3-(5)-
A |----------------------------------------------------------------
E |----------------------------------------------------------------

           G        F             Eb          D
-----------------------------------------------------------
-------11--------------------------------------------------
----10----12~---10-(10)--7-5-3-5-3-----------(5^)-3-(5^)---
-12--------------------------------(5)---3-5---------------
-----------------------------------------------------------
-----------------------------------------------------------

----------------------|
----------------------|
--5^-3-3^5-3----------|
-------------5-3-(5)--|
----------------------|
----------------------|


Solo 2


     G               F               Eb
E |-------------------------------------------
B |-13/15--15-13-12-13-12-10-8-10^-8----------
G |----------------------------------(8)------
D |----------------------------------(8)------
A |--------------------------------------------
E |--------------------------------------------


     G               F                    Eb
E |--------------------------------------------
B |-13/15--15-13-12-13-12-10-8-10^-8----25-(26)-
G |--------------------------------------------
D |--------------------------------------------
A |--------------------------------------------
E |--------------------------------------------


                G               F           Eb
E |----------15----------------------------------
B |-26-25-23----25~~---13-12h13-10-8-10^-8------
G |----------------------------------------(8)--
D |----------------------------------------(8)--
A |--------------------------------------------
E |--------------------------------------------


      D

E |-----------------------14-15-14---------
B |----------------15~-------------15~-/---
G |-11-12-11-12/14---------------------------
D |------------------------------------------
A |--------------------------------------------
E |--------------------------------------------
Suggest correction
Give kudos to tab author, rate the tab!
1 2 3 4 5
comments
print report bad tab
guest
You may want to rate the tab now too:
select rating
Wanna post a correction for this tab? Suggest correction