Oops, an error
Loading. Please wait.

El Fantasma Del 5º Piso Tab

29 views 1 this week
no commentswrite comment
1 2 3 4 5
3 more votes to show rating
add to favorites
launch autoscroll
font size
0
reset
how to read this tab
guitar tuner
Autoscroll
slow
fast
+/-
esc
set tempo
stop
Help us to improve Ultimate-Guitar.com Take our survey!
×
INTRO:

E|--------------------------------|
B|-------6-5---------------8------|
G|-----7-----------------7--------| x2
D|---7-----------------8----------|
A|-5-----------------7------------|
E|--------------------------------|


E|----------------5--|-----------------5--|
B|-8--------------6--|--------8--------6--|
G|-7--------------7--|------7---7------7--|
D|-8-(con delay)--7--|----8-------8----7--|
A|-7--------------5--|--7--------------5--|
E|-------------------|--------------------|

E|-------------------------------------|
B|-------------------------------------|
G|-5-5-5-5-5-5-5-5----3-3-3-3-3-3-3-3--|
D|-5-5-5-5-5-5-5-5----3-3-3-3-3-3-3-3--|
A|-3-3-3-3-3-3-3-3--0-1-1-1-1-1-1-1-1--|
E|-------------------------------------|

E|--------------------------------|
B|-------6-5---------------8------|
G|-----7-----------------7--------| x2
D|---7-----------------8----------|
A|-5-----------------7------------|
E|--------------------------------|

Bb                 Dm
Quinto piso, hotel Sur
Bb                 Dm
Hace rato que empezó
Bb                       Dm
Retumban los pasos en mi cabeza
Bb                        Dm
La niebla es espesa alrededor.

(ENTRA BATERIA Y BAJO)


RIFF
E|------------------------------------|
B|------------------------------------|
G|------------------------------------|
D|------------------------------------|
A|-----8-7---5-------8-7---5----10----|
E|-5-8-----------5-8------------------|


Bb                 Dm
Hay un dragón en la pared
Bb                 Dm
Y se derrite la pared
Bb                 Dm  (RIFF)
Bate sus alas el dragón
Bb                 Dm  (RIFF) C
Y vuela lento sobre mí.


   F             F            F
E|-1-------------1------------1----------|
B|-1-------------1------------1----------|
G|-2-------------2------------2----------|
D|-3--3------3---3--3------3--3---3----3-|
A|-3----2--------3----2-------3-----2----|
E|-1-------------1------------1----------|

  Bb                C
E|-----------------------------------|
B|-----------------------------------|
G|-3-3-3-3-3-3-3-3--5-5-5-5-5-5-5-5--|
D|-3-3-3-3-3-3-3-3--5-5-5-5-5-5-5-5--|
A|-1-1-1-1-1-1-1-1--3-3-3-3-3-3-3-3--|
E|-----------------------------------|

RIFF2
  Dm             Dm             B7
E|-------------------------------------|
B|-------------------------------------|
G|-------------------------------------| X2
D|---------------------------------6---|
A|-----5-8--5--------5-8--5----5-8-----|
E|-5-8-----------5-8-------------------|


Dm                   B7
Bajo corriendo las escaleras
Dm                   B7
Salgo a la calle al fin
Dm                         B7
No veo a nadie, tampoco hay calles
Dm                   B7
¿Qué es lo que pasa aquí?

Bb               C
Nada hay arriba, nada debajo.

   F             F            F
E|-1-------------1------------1----------|
B|-1-------------1------------1----------|
G|-2-------------2------------2----------|
D|-3--3------3---3--3------3--3---3----3-|
A|-3----2--------3----2-------3-----2----|
E|-1-------------1------------1----------|

  Bb                C
E|-----------------------------------|
B|-----------------------------------|
G|-3-3-3-3-3-3-3-3--5-5-5-5-5-5-5-5--|
D|-3-3-3-3-3-3-3-3--5-5-5-5-5-5-5-5--|
A|-1-1-1-1-1-1-1-1--3-3-3-3-3-3-3-3--|
E|-----------------------------------|


SOLO EN: F - Bb - C

F                    Bb      C         F    Bb    C
De pronto vuelvo al mismo cuarto de hotel
F                        Bb          C    F   Bb   C
La misma calle, el mismo ruido otra vez.
F                        Bb        C    F   Bb   C
Por la ventana se ve una multitud
F                Bb          C       F   Bb  C
Y en la vereda los restos de un dragón.


SOLO


FIN.
Suggest correction
Give kudos to tab author, rate the tab!
1 2 3 4 5
comments
print report bad tab
guest
You may want to rate the tab now too:
select rating
Wanna post a correction for this tab? Suggest correction