Oops, an error
Loading. Please wait.

El Sueño Del Jinete Chords

221 views 1 this week
no commentswrite comment
1 2 3 4 5
3 more votes to show rating
add to favorites
launch autoscroll
font size
0
reset
transpose
0
reset
display chords
guitar tuner
Autoscroll
slow
fast
+/-
esc
set tempo
stop
Help us to improve Ultimate-Guitar.com Take our survey!
×
   G           C     F       G          C     F DO
1----------------------------------------------------1--0----
2----------------------------------------------------1--1----
3----------------------------------------------------2--0----
4---5---------0-(0-2)-0------------2-2-0-------------3--2------
5---5-----0-3-----------3-------0--------3-------3---3--3------
6---3---------------------1-0-1------------1-0-1-----1--------


C            F             G                   C   (F-DO)
 Esta es la historia... la historia de un hombre común
C            F                   G                 C   (F-DO)
 que un día mirando hacia el cielo lo deslumbró una señal.

C                  F          G        C  (F-DO)
 Buscó un madero gastado que el río le regalo,
C                   F            G                  C
 cayo un caballo con alas de fuego y una estrella le pinto.


      F    C   G
1-----------------------------------------
2-----------------------------------------
3-----------------------------------------
4-0-2-3------2----0-----------------------
5-----------------------------------------
6-----------------------------------------


Con su sombrero de plumas y una capa de brillo lunar,

partió una noche con su caballo un punto en la inmensidad.


Borró sus huellas aquel jinete nadie supo mas de él.

dicen que anda galopando el cielo montando su brioso corcel.
Suggest correction
Give kudos to tab author, rate the tab!
1 2 3 4 5
comments
print report bad tab
guest
You may want to rate the tab now too:
select rating
Wanna post a correction for this tab? Suggest correction