Oops, an error
Loading. Please wait.

El Viaje De Las Partículas Chords

92 views 1 this week
no commentswrite comment
1 2 3 4 5
3 more votes to show rating
add to favorites
×
Save as Personal and add changes to this tab that will be seen only by you. Learn more ›
×
You can save this tab as Personal to edit and correct it or add notes. All changes will be seen only by you. Learn more »
save as personal
new!
launch autoscroll
font size
0
reset
transpose
0
reset
simplify chords
display chords
guitar tuner
Autoscroll
slow
fast
+/-
esc
set tempo
stop
Strumming
There is no strumming pattern for this song yet. and get +5 IQ
Em        Am            Em G/B     D Dsus4 MIm

e----------------------/---------------------------------
b----------------------/---------------------------------
g-----------4-5-7-5-4--/-----4-4-4-2---------------------
d------2-2-------------/---2---------5-4-5-4-2-----------
a----------------------/---------------------------------
E-----(0)--------------/---------------------------------

Em        Am             Em G/B     D Dsus4 MIm
e----------------------/---------------------------------
b----------------------/---------------------------------
g--------4-444-5-4-2-4-/---Repite lo de arriba-----------
d------2---------------/---------------------------------
a----------------------/---------------------------------
E----------------------/---------------------------------


Em                  Am        Em
Cuando se apague el último fuego
Em        G/B     D Dsus4    Em
Cuando se calle la última voz
Aún estará la tierra girando
Girando y girando, girando con vos.

G          C        D
Aunque no haya testigos
G          C        D
Aunque no haya más risas
G          C        D
Aunque estallen las bombas
G                    D
La tierra seguirá aquí.

Cuando se apague la última estrella
Cuando se seque el último mar
Yo voy a estar girando y girando
Fuera del tiempo girando con vos.

Quedará para siempre
Tu mirada en mis ojos
Aunque un día la tierra deje de girar.

La progresion necesaria es: Mim, Lam, Mi, Re, Mi
Como arreglo juega con las notas LAsus2-La-Lasus4-La-Lasus2
Y Resus4

Facundo Madrid
 Rosario, Argentina 2007
 Cualquier duda, mi mail es iguanadie@
 Un abrazo!
Suggest correction
Give kudos to tab author, rate the tab!
1 2 3 4 5
comments
print report bad tab
guest
Wanna post a correction for this tab? Suggest correction