Oops, an error
Loading. Please wait.

El Viaje De Las Partículas Tab

53 views 3 this week
no commentswrite comment
1 2 3 4 5
3 more votes to show rating
add to favorites
launch autoscroll
font size
0
reset
how to read this tab
guitar tuner
Autoscroll
slow
fast
+/-
esc
set tempo
stop
INTRO:

E|------------------------------------------------------|
B|------------------------------------------------------|
G|------4~---5-7-5-4---------4-4-4-2--------------------|
D|---2---------------------2-------------5-4-5-4-2~-----|
A|------------------------------------------------------|
E|------------------------------------------------------|

E|------------------------------------------------------|
B|------------------------------------------------------|
G|------4~---5-4-2-4---------4-4-4-2--------------------|
D|---2---------------------2-------------5-4-5-4-2~-----|
A|------------------------------------------------------|
E|------------------------------------------------------|

Em                            Am   Em
Cuando se apague el último fuego
Em                   D     Em
Cuando se calle la última voz
Em                    Am   Em
Aún estará la tierra girando
Em                        D     Em
Girando y girando, girando con vos.

E|------------------------------------------------------|
B|------------------------------------------------------|
G|------4~---5-7-5-4---------4-4-4-2--------------------|
D|---2---------------------2-------------5-4-5-4-2~-----|
A|------------------------------------------------------|
E|------------------------------------------------------|

G                       C   D
Aunque no haya testigos
G                    C    D
Aunque no haya más risas
G                          C   D
Aunque estallen las bombas
G                    D
La tierra seguirá aquí.

Em                       Am   Em
Cuando se apague la última estrella
Em                       D     Em
Cuando se seque el último mar
Em                   Am         Em
Yo voy a estar girando y girando
Em                      D        Em
Fuera del tiempo girando con vos.

E|------------------------------------------------------|
B|------------------------------------------------------|
G|------4~---5-7-5-4---------4-4-4-2--------------------|
D|---2---------------------2-------------5-4-5-4-2~-----|
A|------------------------------------------------------|
E|------------------------------------------------------|

G               C     D
Quedará para siempre
G                   C    D
Tu mirada en mis ojos
G                     C    D
Aunque un día la tierra
G            D
deje de girar.

E|------------------------------------------------------|
B|------------------------------------------------------|
G|------4~---5-7-5-4---------4-4-4-2--------------------|
D|---2---------------------2-------------5-4-5-4-2~-----|
A|------------------------------------------------------|
E|------------------------------------------------------|

E|-------------------------------------------------------------0---|
B|-----------------------------------------------------------0-----|
G|------4~---5-4-2-4---------4-4-4-2-----------------------0-------|
D|---2---------------------2-------------5-4-5-4---------2---------|
A|-----------------------------------------------------2-----------|
E|---------------------------------------------------0-------------|


LA INTRO ESTA BIENN !!

LE CAMBIE UN PAR DE NOTAS POR TABAN MALL !!

SUERTEE !!
Suggest correction
Give kudos to tab author, rate the tab!
1 2 3 4 5
comments
print report bad tab
guest
You may want to rate the tab now too:
select rating
Wanna post a correction for this tab? Suggest correction