Oops, an error
Loading. Please wait.

Tal Vez Mañana Tab

version 1
version 1

Whole song

22 views 1 this week
no commentswrite comment
1 2 3 4 5
3 more votes to show rating
add to favorites
launch autoscroll
font size
0
reset
how to read this tab
guitar tuner
Autoscroll
slow
fast
+/-
esc
set tempo
stop
Help us to improve Ultimate-Guitar.com Take our survey!
×
Intro
Mi5                      El rasgueo se divide en semicorcheas, sonando
e---------------------   los 2 primeros tiempos:
b---------------------
g--9------------------     g--9-9-x-x---------------
d--9------------------     d--9-9-x-x---------------
a--7------------------     a--7-7-x-x---------------
E---------------------


Riff - 2 Violas, para no hacer los quintas se pueden marcar
                 todas las notas
  MI                         SOL              MI
e--7--------------------------7---------------7----------
b--8--------------------------8---------------8----------
g--9--------------------------7---------------9----------
d--9--------------------------9---------------9----------
a--7--------------------------10--------------7----------
E--------------------------------------------------------


e------12-------------------------7-----------------------
b--12-------------------------8-------------------5-------
g---------------------------------------------4-----------

 RE       LAm            MIm
Yo lo he visto en los andenes
O durmiendo en un vagón
Caminando por las vías
 DO7/9
Siempre está buscando
A ese tren sin frenos
                          SI7
Que lo lleve a Katmandú.

Riff

Ve la luna en la ventana
Y se acurruca por ahí
Va quedándose dormido
Y entre los sueños
Siempre está buscando
Un tren para Katmandú.

Riff

Corte LAm  G---------5--3------------------------------
           d-2-2-2--5------5--------------------------- x2
      MIm
      LAm  E-----------------------12----------------------
           b---------------------------------------------
           g-------12----12----14^----14^-12-------------
           d-14-14----14----14---------------14-12----------
      MIm
      SI  E----7---7-5-7-10-7----5-5-------------------------------
          b--------------------------8-7-5---5---------------------
          g--------------------------------7-----------------------

Riff
Verso

Final

e------12----------10---------------8-----------------------
b--12----------10---------------8-------------------5-------
g---------------------------------------------4-------------
Solo sobre Mim


Facundo Madrid
 Rosario, Argentina 2007
 Cualquier duda, mi mail es iguanadie@
 Un abrazo!
Suggest correction
Give kudos to tab author, rate the tab!
1 2 3 4 5
comments
print report bad tab
guest
You may want to rate the tab now too:
select rating
Wanna post a correction for this tab? Suggest correction