Oops, an error
Loading. Please wait.

Tal Vez Mañana Tab

version 2
version 2

Whole song

22 views 1 this week
no commentswrite comment
1 2 3 4 5
3 more votes to show rating
add to favorites
launch autoscroll
font size
0
reset
how to read this tab
guitar tuner
×
Best way to learn
"Tal Vez Mañana"
Autoscroll
slow
fast
+/-
esc
set tempo
stop
Solo 1 1.45

   LA m                                 Em
|----------------------------------------------------------------|
|------------5-3-(1)-------------5-3-1---------------------------|
|-2-2-2-2--5-4-2-(2)--2-2-2-2-5--4-2-2--4-4~--2^-0---------------|
|-2-2-2-2-------------2-2-2-2----------------------2-0-0/2------5|
|-----------------------------------------------------------5-7--|
|----------------------------------------------------------------|

  LA m                                        Em
|-------------(10)-----(10)--------------------------------------
|-----8---8-10^------10^--10^-8--10-10-10-8---8------------------
|-7-9---9-----------------------9-----------9---9-(9)------------
|-----------------------------------------------------7-5-7-5----
|-------------------------------------------------------------(7)
|----------------------------------------------------------------
                        B
---------------------|-(7)-7-7-7----7-10-10^(7)--------------
---------------------|-(7)-------10-------------/10-10-10-10-
---------------------|-(8)-----------------------------------
-----5-------5-------|---------------------------------------
-5-7---7-5-7---7-(7)-|--------------------------------------
---------------------|--------------------------------------
               Em       G     Em
-------------------|
-8-7^8^7--5-4-(5)--|
-------------------|
-------------------|
-------------------|
-------------------|


Solo 2 2:56


|---12----10--8--7-------|--|-----------------------------------------|
|-12-----10--8--8--------|--|-----8-----------------------------------|
|-------------------9(p)-|--|-------(9)--7---7-(9)--------------------|
|------------------------|x2|-7-9----------9--------7-5--7^-5---------|
|------------------------|--|---------------------------------(7)-5-7-|
|------------------------|--|-----------------------------------------|

|---------------------------------12---|
|-----8-7^8^7---------------------12---|
|---7---------9-7-7--5-4-5-7-4~---12---|
|-9------------------------------------|
|--------------------------------------|
|--------------------------------------|


|--------------------------------(12)-
|-----8-10-12-13-12-10-12-13-12--(12)-
|-7-9---------------------------------
|-------------------------------------
|-------------------------------------
|-------------------------------------


|-(12)---(10)---(8)----7-8-10-(7)-----
|-(12)x4-(10)x4-(8)x3--8-8-10-(8)-----
|---------------------------------9p--
|-------------------------------------
|-------------------------------------
|-------------------------------------

fade out

Fin.
Suggest correction
Give kudos to tab author, rate the tab!
1 2 3 4 5
comments
print report bad tab
guest
You may want to rate the tab now too:
select rating
Wanna post a correction for this tab? Suggest correction