Oops, an error
Loading. Please wait.

Algún Día Tab

by Skizoo
266 views 3 this week
no commentswrite comment
1 2 3 4 5
3 more votes to show rating
add to favorites
launch autoscroll
font size
0
reset
how to read this tab
guitar tuner
×
Best way to learn
"Algún Día"
Autoscroll
slow
fast
+/-
esc
set tempo
stop
Guitarra solista


E||-------|-------|-------------------|-------------------|
B||-------|-------|-------------------|-------------------|
G||-------|-------|-------------------|-------------------|
D||-------|-------|-------------------|-------------------|
A||-------|-------|-------------------|-------------------|
E||-------|-------|-------------------|-------------------|


-------------------|-------------------|-------------------|
-------------------|-------------------|-------------------|
-------------------|-------------------|-------------------|
-------------------|-------------------|-------------------|
-------------------|-------------------|-------------------|
-------------------|-------------------|-------------------|


                       E   E   E   H        E
-------------------|--13--12-------------------|-------|
-------------------|----------13---------------|-------|
-------------------|--------------14-----------|-------|
-------------------|---------------------------|-------|
-------------------|---------------------------|-------|
-------------------|---------------------------|-------|


   E   E   E   Q    E   E   E      E   H.              E
--13--12-----------------------|--------------------------|
----------13-------------------|--------------------------|
--------------14-------12--14--|---L--14pbr---------------|
-------------------------------|--------------------------|
-------------------------------|--------------------------|
-------------------------------|--------------------------|


   E   E   E   H        E              E   E   E   Q    E   E   E
--13--12-------------------|-------|--13--12-----------------------|
----------13---------------|-------|----------13-------------------|
--------------14-----------|-------|--------------14-------12--14--|
---------------------------|-------|-------------------------------|
---------------------------|-------|-------------------------------|
---------------------------|-------|-------------------------------|


   E   H.              E      E   E   E   H        E
--------------------------|--13--12-------------------|-------|
--------------------------|----------13---------------|-------|
---L--14pbr---------------|--------------14-----------|-------|
--------------------------|---------------------------|-------|
--------------------------|---------------------------|-------|
--------------------------|---------------------------|-------|


   E   E   E   Q    E   E   E      E   H.              E
--13--12-----------------------|--------------------------|
----------13-------------------|--------------------------|
--------------14-------12--14--|---L--14pbr---------------|
-------------------------------|--------------------------|
-------------------------------|--------------------------|
-------------------------------|--------------------------|


   E   E   E   H        E              E   E   E   Q    E   E   E
--13--12-------------------|-------|--13--12-----------------------|
----------13---------------|-------|----------13-------------------|
--------------14-----------|-------|--------------14-------12--14--|
---------------------------|-------|-------------------------------|
---------------------------|-------|-------------------------------|
---------------------------|-------|-------------------------------|


   E   H.              E
--------------------------|-------|-------|-------|-------|-------|-------|
--------------------------|-------|-------|-------|-------|-------|-------|
---L--14pbr---------------|-------|-------|-------|-------|-------|-------|
--------------------------|-------|-------|-------|-------|-------|-------|
--------------------------|-------|-------|-------|-------|-------|-------|
--------------------------|-------|-------|-------|-------|-------|-------|


-------|-------|-------|-------|-------|-------|-------|-------|-------|
-------|-------|-------|-------|-------|-------|-------|-------|-------|
-------|-------|-------|-------|-------|-------|-------|-------|-------|
-------|-------|-------|-------|-------|-------|-------|-------|-------|
-------|-------|-------|-------|-------|-------|-------|-------|-------|
-------|-------|-------|-------|-------|-------|-------|-------|-------|


-------|-------|-------|-------|-------|-------|-------|-------|-------|
-------|-------|-------|-------|-------|-------|-------|-------|-------|
-------|-------|-------|-------|-------|-------|-------|-------|-------|
-------|-------|-------|-------|-------|-------|-------|-------|-------|
-------|-------|-------|-------|-------|-------|-------|-------|-------|
-------|-------|-------|-------|-------|-------|-------|-------|-------|


-------|-------|-------|-------|-------|-------|-------|-------|-------|
-------|-------|-------|-------|-------|-------|-------|-------|-------|
-------|-------|-------|-------|-------|-------|-------|-------|-------|
-------|-------|-------|-------|-------|-------|-------|-------|-------|
-------|-------|-------|-------|-------|-------|-------|-------|-------|
-------|-------|-------|-------|-------|-------|-------|-------|-------|


           E   E   E   H        E
-------|--13--12-------------------|-------|
-------|----------13---------------|-------|
-------|--------------14-----------|-------|
-------|---------------------------|-------|
-------|---------------------------|-------|
-------|---------------------------|-------|


   E   E   E   Q    E   E   E      E   H.              E
--13--12-----------------------|--------------------------|
----------13-------------------|--------------------------|
--------------14-------12--14--|---L--14pbr---------------|
-------------------------------|--------------------------|
-------------------------------|--------------------------|
-------------------------------|--------------------------|


   E   E   E   H        E              E   E   E   Q    E   E   E
--13--12-------------------|-------|--13--12-----------------------|
----------13---------------|-------|----------13-------------------|
--------------14-----------|-------|--------------14-------12--14--|
---------------------------|-------|-------------------------------|
---------------------------|-------|-------------------------------|
---------------------------|-------|-------------------------------|


   E   H.              E
--------------------------|-------|-------|-------|-------|-------|-------|
--------------------------|-------|-------|-------|-------|-------|-------|
---L--14pbr---------------|-------|-------|-------|-------|-------|-------|
--------------------------|-------|-------|-------|-------|-------|-------|
--------------------------|-------|-------|-------|-------|-------|-------|
--------------------------|-------|-------|-------|-------|-------|-------|


-------|-------|-------|-------|-------|-------|-------|-------|-------|
-------|-------|-------|-------|-------|-------|-------|-------|-------|
-------|-------|-------|-------|-------|-------|-------|-------|-------|
-------|-------|-------|-------|-------|-------|-------|-------|-------|
-------|-------|-------|-------|-------|-------|-------|-------|-------|
-------|-------|-------|-------|-------|-------|-------|-------|-------|


-------|-------|-------|-------|-------|-------|-------|-------|-------|
-------|-------|-------|-------|-------|-------|-------|-------|-------|
-------|-------|-------|-------|-------|-------|-------|-------|-------|
-------|-------|-------|-------|-------|-------|-------|-------|-------|
-------|-------|-------|-------|-------|-------|-------|-------|-------|
-------|-------|-------|-------|-------|-------|-------|-------|-------|


                                                   W
-------|-------|-------|-------|-------|-------|---------------------|
-------|-------|-------|-------|-------|-------|---------------------|
-------|-------|-------|-------|-------|-------|---------------------|
-------|-------|-------|-------|-------|-------|---------------------|
-------|-------|-------|-------|-------|-------|---------------------|
-------|-------|-------|-------|-------|-------|--(8)----------------|


  W                    W                   W
-------------------|--------------------|-------------------|
-------------------|--------------------|-------------------|
-------------------|--------------------|-------------------|
-------------------|--10----------------|--L----------------|
-------------------|--10----------------|--L----------------|
--L----------------|---8----------------|--L----------------|


  Q    E  E  Q.     E     E  Q    H        E     Q    E  E  Q.     E
-----------------------|----------------------|-----------------------|
-----------------------|----------------------|-----------------------|
-----------------------|----------------------|-----------------------|
--6----6--6--6------6--|--L--6----6--------L--|--6----6--6--6------6--|
--6----6--6--6------6--|--L--6----6--------L--|--6----6--6--6------6--|
--4----4--4--4------4--|--L--4----4--------L--|--4----4--4--4------4--|


  E  Q    H        E     E  E  E  E  E  E  E  E
----------------------|--------------------------|
----------------------|--------------------------|
----------------------|--------------------------|
-----6----6--------L--|--3--3-----3--3-----3--3--|
--L--6----6--------L--|--3--3-----3--3-----3--3--|
--L--4----4--------L--|--1--1-----1--1-----1--1--|


  E  E  E  E  E  E  E  E     E  E  E  E  E  E  E  E
--------------------------|--------------------------|
--------------------------|--------------------------|
--------------------------|--------------------------|
-----3--3-----3--3--3--3--|--3--3-----3--3-----3--3--|
-----3--3-----3--3--3--3--|--3--3-----3--3-----3--3--|
-----1--1-----1--1--1--1--|--1--1-----1--1-----1--1--|


  E  E  E  E  E  E  E  E     Q    E  E  Q.     E     E  Q    H        E
--------------------------|-----------------------|----------------------|
--------------------------|-----------------------|----------------------|
--------------------------|-----------------------|----------------------|
-----3--3-----3--3--3--3--|--6----6--6--6------6--|-----6----6--------L--|
-----3--3-----3--3--3--3--|--6----6--6--6------6--|--L--6----6--------L--|
-----1--1-----1--1--1--1--|--4----4--4--4------4--|--L--4----4--------L--|


  Q    E  E  Q.     E     E  Q    H        E     E  E  E  E  E  E  E  E
-----------------------|----------------------|--------------------------|
-----------------------|----------------------|--------------------------|
-----------------------|----------------------|--------------------------|
--6----6--6--6------6--|--L--6----6--------L--|--3--3-----3--3-----3--3--|
--6----6--6--6------6--|--L--6----6--------L--|--3--3-----3--3-----3--3--|
--4----4--4--4------4--|--L--4----4--------L--|--1--1-----1--1-----1--1--|


  E  E  E  E  E  E  E  E     E  E  E  E  E  E  E  E
--------------------------|--------------------------|
--------------------------|--------------------------|
--------------------------|--------------------------|
-----3--3-----3--3--3--3--|--3--3-----3--3-----3--3--|
-----3--3-----3--3--3--3--|--3--3-----3--3-----3--3--|
-----1--1-----1--1--1--1--|--1--1-----1--1-----1--1--|


  E  E  E  E  E  E  E  E     E  E  E  E  E  E  E  E
--------------------------|--------------------------|
--------------------------|--0--0--0--0--0--0--0--0--|
--------------------------|--------------------------|
-----3--3-----3--3--3--3--|--------------------------|
-----3--3-----3--3--3--3--|--------------------------|
-----1--1-----1--1--1--1--|--------------------------|


  E  E  E  E  E  E  E  E     E  E  E  E  E  E  E  E
--------------------------|--------------------------|
--------------------------|--0--0--0--0--0--0--0--0--|
--2--2--2--2--2--2--1--2--|--------------------------|
--------------------------|--------------------------|
--------------------------|--------------------------|
--------------------------|--------------------------|


  E  E  E  E  E  E  E  E     E  E  E  E  E  E  E  E
--------------------------|--------------------------|
--------------------------|--4--4--4--4--4--4--4--4--|
--2--2--2--2--2--2--1--2--|--------------------------|
--------------------------|--------------------------|
--------------------------|--------------------------|
--------------------------|--------------------------|


  E  E  E  E  E  E  E  E     E  E  E  E  E  E  E  E
--------------------------|--------------------------|
--3--3--3--3--3--3--1--3--|--4--4--4--4--4--4--4--4--|
--------------------------|--------------------------|
--------------------------|--------------------------|
--------------------------|--------------------------|
--------------------------|--------------------------|


  E  E  E  E  E  E  E  E     E  E  E  E  E  E  E  E
--------------------------|--------------------------|
--3--3--3--3--3--3--3--3--|--0--0--0--0--0--0--0--0--|
--------------------------|--------------------------|
--------------------------|--------------------------|
--------------------------|--------------------------|
--------------------------|--------------------------|


  E  E  E  E  E  E  E  E     E  E  E  E  E  E  E  E
--------------------------|--------------------------|
--------------------------|--0--0--0--0--0--0--0--0--|
--2--2--2--2--2--2--1--2--|--------------------------|
--------------------------|--------------------------|
--------------------------|--------------------------|
--------------------------|--------------------------|


  E  E  E  E  E  E  E  E     E  E  E  E  E  E  E  E
--------------------------|--------------------------|
--------------------------|--------------------------|
--2--2--2--2--2--2--1--2--|--------------------------|
--------------------------|--------------------------|
--------------------------|--3--3--3--3--3--5--5--5--|
--------------------------|--------------------------|


  E  E  E  E  E  E  E  E     E  E  E  E  E  E  E  E
--------------------------|--------------------------|
--------------------------|--------------------------|
--------------------------|--------------------------|
--------------------------|--------------------------|
--5--6--6--6--6--8--6--5--|--3--3--3--3--3--5--5--5--|
--------------------------|--------------------------|


  E  E  E  E  E  E  E  E      W                   W
--------------------------|--------------------|-------------------|
--------------------------|--------------------|-------------------|
--------------------------|--10----------------|--L----------------|
--------------------------|--10----------------|--L----------------|
--5--6--6--6--6--8--6--5--|---8----------------|--L----------------|
--------------------------|--------------------|-------------------|


  W                   W                    W
-------------------|-------------------|--------------------|
-------------------|-------------------|--------------------|
-------------------|-------------------|--10----------------|
--6----------------|--L----------------|--10----------------|
--6----------------|--L----------------|---8----------------|
--4----------------|--L----------------|--------------------|


  W                   W                   W
-------------------|-------------------|-------------------|
-------------------|-------------------|-------------------|
--L----------------|-------------------|-------------------|
--L----------------|--6----------------|--L----------------|
--L----------------|--6----------------|--L----------------|
-------------------|--4----------------|--L----------------|


  W                   W                    H.             E   E
-------------------|-------------------|-------------------------|
-------------------|-------------------|-------------------------|
-------------------|-------------------|--10b------------12--12--|
--6----------------|--L----------------|-------------------------|
--6----------------|--L----------------|-------------------------|
--4----------------|--L----------------|-------------------------|


   E  E   E  E   E   E  E   S S     E   S S  E  E   E   S S  E  E
--------------------------------|----------------------------------|
--------------------------------|----------------------------------|
--12-----12-----12--12-----10-8-|--10--10-8------------------------|
--------------------------------|-----------10--8--10--10-8--------|
--------------------------------|---------------------------10--8--|
--------------------------------|----------------------------------|


   E  E   E   E  E   E  E   E      Q.       S S  H
-------------------------------|--------------------------|
-------------------------------|--------------------------|
-----------------8------8--10--|--10b------10-8-10--------|
---------10--12-----10---------|--------------------------|
------8------------------------|--------------------------|
--11---------------------------|--------------------------|


   E  E  E  E   E  E  E  E     Q.     E  Q    E  E     Q.     H        E
----------------------------|-----------------------|------------------3--|
----------------------------|-----------------------|---------------------|
---L--5--7--8--10--8--7--8--|--8------7--5----3--5--|--L------------------|
----------------------------|-----------------------|---------------------|
----------------------------|-----------------------|---------------------|
----------------------------|-----------------------|---------------------|


  E   E   E   E  E  E  E  E     H        E  Q    E
--8--10--11--10--8--6--3--8--|--L--------L--6----7--|
-----------------------------|----------------------|
-----------------------------|----------------------|
-----------------------------|----------------------|
-----------------------------|----------------------|
-----------------------------|----------------------|


   E  E  E   E  E  E   E  E     E   E  E  E   E  E  E  E
--18--6--7--18--6--7--18--6--|--7--18--6--7--18--6--7--6--|
-----------------------------|----------------------------|
-----------------------------|----------------------------|
-----------------------------|----------------------------|
-----------------------------|----------------------------|
-----------------------------|----------------------------|


   S  S  S  S  S  S  S  S  S  S  S  S  S  S  S  S
--18-18-18-18-16-16-16-16-15-15-15-15-13-13-13-13-|
--------------------------------------------------|
--------------------------------------------------|
--------------------------------------------------|
--------------------------------------------------|
--------------------------------------------------|


   S  S  S  S  Q    Q    E   E
--11-11-11-11-10----8----8--10--|
--------------------------------|
--------------------------------|
--------------------------------|
--------------------------------|
--------------------------------|


   está mal
   E        E   S   S  S   S E  S  S  S  S S  S
--11-------10--11p-10p-8h-10--------------------|
-----------------------------9--9p-8-------8----|
-------------------------------------10p-8---10-|
------------------------------------------------|
------------------------------------------------|
------------------------------------------------|


   S  S S  S S S S  S  S  S  S  S  E   E      H         H
------------------------------------------|----------------------|-------|
------------------------------------------|----------------------|-------|
--12-13------------------10---------------|----------------------|-------|
--------8-10-5-6-8-10-12----10-10-10--12--|--10~-----------------|-------|
------------------------------------------|----------------------|-------|
------------------------------------------|----------------------|-------|


-------|-------|-------|-------|-------|-------|-------|-------|-------|
-------|-------|-------|-------|-------|-------|-------|-------|-------|
-------|-------|-------|-------|-------|-------|-------|-------|-------|
-------|-------|-------|-------|-------|-------|-------|-------|-------|
-------|-------|-------|-------|-------|-------|-------|-------|-------|
-------|-------|-------|-------|-------|-------|-------|-------|-------|


-------|-------|-------|-------|-------|-------|-------|
-------|-------|-------|-------|-------|-------|-------|
-------|-------|-------|-------|-------|-------|-------|
-------|-------|-------|-------|-------|-------|-------|
-------|-------|-------|-------|-------|-------|-------|
-------|-------|-------|-------|-------|-------|-------|


   E   E   E   H        E              E   E   E   Q    E   E   E
--13--12-------------------|-------|--13--12-----------------------|
----------13---------------|-------|----------13-------------------|
--------------14-----------|-------|--------------14-------12--14--|
---------------------------|-------|-------------------------------|
---------------------------|-------|-------------------------------|
---------------------------|-------|-------------------------------|


   E   H.              E      E   E   E   H        E
--------------------------|--13--12-------------------|-------|
--------------------------|----------13---------------|-------|
---L--14pbr---------------|--------------14-----------|-------|
--------------------------|---------------------------|-------|
--------------------------|---------------------------|-------|
--------------------------|---------------------------|-------|


   E   E   E   Q    E   E   E      E   H.              E
--13--12-----------------------|--------------------------|-----||
----------13-------------------|--------------------------|-----||
--------------14-------12--14--|---L--14pbr---------------|-----||
-------------------------------|--------------------------|-----||
-------------------------------|--------------------------|-----||
-------------------------------|--------------------------|-----||


Duration Legend
---------------
W - whole
H - half
Q - quarter
E - 8th
S - 16th
T - 32nd
X - 64th
. - note dotted
|-n-|  - n-tuplets


Tablature Legend
----------------
L - tied note
x - dead note
g - grace note
(n) - ghost note
> - accentuded note
NH - natural harmonic
AH - artificial harmonic
TH - tapped harmonic
SH - semi harmonic
PH - pitch harmonic
h - hammer on
p - pull off
b - bend
br - bendRelease
pb - preBend
pbr - preBendRelease
brb - bendReleaseBend
n/ - tremolo bar dip
n - tremolo bar dive
-/n - tremolo bar Release up
/n - tremolo bar inverted dip
/n - tremolo bar return
-n - tremolo bar Release down
S - shift slide
s - legato slide
/ -  slide into from below or out of upwards
 -  slide into from above or out of downwards
~ - vibrato
W - wide vibrato
tr - trill
TP - tremolo picking
T - tapping
S - slap
P - pop
< - fade in
^ - brush up
v - brush down
Suggest correction
Give kudos to tab author, rate the tab!
1 2 3 4 5
comments
print report bad tab
guest
You may want to rate the tab now too:
select rating
Wanna post a correction for this tab? Suggest correction