Oops, an error
Loading. Please wait.

Bombardeando Chords

20 views 1 this week
no commentswrite comment
1 2 3 4 5
3 more votes to show rating
add to favorites
launch autoscroll
font size
0
reset
transpose
0
reset
display chords
guitar tuner
×
Best way to learn
"Bombardeando"
Autoscroll
slow
fast
+/-
esc
set tempo
stop
(Lleva ritmo Ska)

D
Alegria y diversion
G
hay que acaban de llegar
D
han llegado pa' quedarse y ya
A
no se irán jamás.
D
El bombardeo comenzó 
G
y firma el skuadrón 
D
201 pa' que sepan
A
vamos todos a bailar

Bm    A
Bm    G
 
D
Nuestras bombas que hay de aire,
G
paz y resistencia
D
incitan al pueblo a la 
A
desobediencia
D
El reconocimiento a la 
G
experiencia
D
que tiene un político
A
para robar

Bm    A
Bm    G

(Coro)
D
Bombardeando, bombardeando
G
la nación,
D
para que termine
A
la discriminación,
D
Bombardeando, bombardeando
G
el continente,
D
para hacer reir y bailar 
A
a mi gente

D
El skuadrón vuela pa' 
G
todos lados
D
surfeando sierras, tierras, mares
A 
y lagos
D
y esto no lo vamos
G
A parar
D
hasta que en mi pais
A
haya igualdad

Bm     A
Bm     G

D
Sufrimos los ataques de la
G
globalización
D
y pa' olvidarnos todo eso 
A
ha llegado el skuadrón
D
pa' que bailes este ritmo
G
y eches buen danzón
D
siguiendo los acordes
A
de esta canción

(Solo de bajo)
(Coro)

(Coro)
(Solo de guitarra y de teclado)

Final:

D    G
D    A (X4)


SOLO DE GUITARRA:(Se repite 2 veces)

e------------------------|----------------------------
B-3-3-3-3-3-3------------|-8-8-8-7-7-7--5-5-5-7-5-7-5-
G--2-2-2-4-4-4-----------|----------------------------
D------------------------|----------------------------
A------------------------|----------------------------
E------------------------|----------------------------

Metales: (sax, trombon, trompeta)
  D      G  D              A     
e------------------------|--------------------------
B-3-3--------------------|-2------------------------
G----0-0-2--2-2-2-2------|--5-4-2-------------------
D------------------------|--------------------------
A------------------------|--------------------------
E------------------------|--------------------------
Suggest correction
Give kudos to tab author, rate the tab!
1 2 3 4 5
comments
print report bad tab
guest
You may want to rate the tab now too:
select rating
Wanna post a correction for this tab? Suggest correction