Oops, an error
Loading. Please wait.

Bitácora Tab

47 views 1 this week
no commentswrite comment
1 2 3 4 5
3 more votes to show rating
add to favorites
launch autoscroll
font size
0
reset
how to read this tab
guitar tuner
×
Best way to learn
"Bitácora"
Autoscroll
slow
fast
+/-
esc
set tempo
stop
Intro:
C - F - G - F
C - F - G - G

C           F          G      F               C  F  G  G
Serás esta vez la canción mas triste que escribí
C           F         G       F         C  F  G  G
serás esta vez la razón mas fuerte para Mi
C           F        G        F          C  F  G  G
no descansaré hasta ver, que vuelvas a reír
C           F         G        F      DO  FA  SOL  SOL
me desnudaré en silencio en tus sueños

    Am         D           Fm          C       C/B
Y cuando los satélites encuentren tu bitácora
    Am         D           Fm          Fm
es posible que no estés tan lejos de aquí

1er Solo:(Am - Am/Ab - Am/G - Am/F# - F - Fm)

Serás para mi la presencia en la soledad
y serás otra vez, mi deseo mas profundo

    Am         D           Fm          C
Y cuando los satélites encuentren tu bitácora
   Am         D           Fm          Fm
es posible que no estés tan lejos de aquí

       C             F
Y hoy ya dormí no tengo sueño
Am         G              C F Am G
quiero quedarme con vos
C                     F
si es diciembre y sigue invierno
Am       G      Am/F#
acá en mi corazón


   F                 Fm                Am  Am/Ab
Estoy tan bien o estoy tan mal sin vos

Am/G  Am/F#  F  Fm
Tan mal sin vos...

2do Solo:((Am - Am/Ab - Am/G - Am/F# - F - Fm)

C           F         G        F           Am   Am/G
serás esta vez la canción mas triste que escribí

3er Solo: (Am - Am/G - C)
C


1er solo:(Am - Am/Ab - Am/G - Am/F# - F - Fm)
e|---------------------------------------------------------------
B|---3^5-3^5-----3^---3^5-3^5------------------------------------
G|-----------5-5---------------5-5-2-----------------------------
D|----------------------------------5-2------------------3-2------
A|--------------------------------------5-3-5-3----3/5-0-3-----3~-
E|---------------------------------------------------------------


2do Solo:(Am - Am/Ab - Am/G - Am/F# - F - Fm)
e|--------------------------------------------8-----------
B|---3^5-3^5-----3^---3^5-3^5-------------------8---------
G|-----------5-5--------------5-5-2--2h5-7^9-------9h7-5--
D|---------------------------------------------------------


3er Solo: (Am - Am/G - C)
e|-----8------------------
B|------------------------
G|--7^---7^9-7-------7^---
D|-------------10-7-------
A|------------------------
E|------------------------
Suggest correction
Give kudos to tab author, rate the tab!
1 2 3 4 5
comments
print report bad tab
guest
You may want to rate the tab now too:
select rating
Wanna post a correction for this tab? Suggest correction