Oops, an error
Loading. Please wait.

Canción Normal Tab

32 views 1 this week
no commentswrite comment
1 2 3 4 5
3 more votes to show rating
add to favorites
launch autoscroll
font size
0
reset
how to read this tab
guitar tuner
Autoscroll
slow
fast
+/-
esc
set tempo
stop
Help us to improve Ultimate-Guitar.com Take our survey!
×
voy a seguirte hasta atras del sol...

e|---------------------------------------------------
B|---10---10---7---5-5-5-5-3-3-3-3-2-2-2-2-0-0-0-0---
G|--9----9----6--------------------------------------
D|-7----6----4---------------------------------------
A|---------------------------------------------------
E|---------------------------------------------------

--------------------------------------------------------
-2-2-2-2-2-2-2-2-2-2-5-5-5-5-7-7-7-7-9-9-9-9-12-12-12-12
--------------------------------------------------------
--------------------------------------------------------
--------------------------------------------------------
--------------------------------------------------------


           D        E    F#m    A  B|-10s12s10-|  e|-9s10s9-|
Con mi canción de amor normal,
                  D     E     F#m    A  B|-10s12s10-|  e|-9s10s9-|
Tapando el hueco que dejaste acá
              D              E          F#m     A  B|-10s12s10-|  e|-9s10s9-|
Será que no quiero dar la vuelta sin tus ojos
                   Bm         A         E     e|-10-9-7-|
Por eso es que me pierdo intentando despertar
             A
Algo mío en vos


se que aun no puedo controlar todo mi instinto
animal, igual, tranquila, que va pasando


y aunque no puedas...

e|--------------------------------------------------
B|-5-5-5-5-5-5-5-5-9-9-9-9-9-9-9-9-7-7-7-7-7-7-7-7--
G|--------------------------------------------------
D|--------------------------------------------------
A|--------------------------------------------------
E|--------------------------------------------------

---------------------------------------------------------
-5-5-5-5-7-7-7-7-5-5-5-5-3-3-3-3-2-2-2-2-5-5-5-5-5-5-5-5-
---------------------------------------------------------
---------------------------------------------------------
---------------------------------------------------------
---------------------------------------------------------


--------------------------------------------|
-9-9-9-9-10-10-10-10-12-12-12-12-14h15s14-12|
--------------------------------------------|
--------------------------------------------|
--------------------------------------------|
--------------------------------------------|


           D        E    F#m    A  B|-10s12s10-|  e|-9s10s9-|
Con mi canción de amor normal,
                  D     E     F#m    A  B|-10s12s10-|  e|-9s10s9-|
Tapando el hueco que dejaste acá
              D              E          F#m     A  B|-10s12s10-|  e|-9s10s9-|
Será que no quiero dar la vuelta sin tus ojos
                   Bm         A         E     e|-10-9-7-|
Por eso es que me pierdo intentando despertar
             A
Algo mío en vos


E G Bm F#m E G A

SOLO

e|---------------------------------------------------------|
B|-5-5-5--3-2-0--------------------------------------------|
G|-------------2-4-6-6s7s6---------------------------------|
D|------------------------7-7-5-5-4-4-2-2------------------|
A|---------------------------------------5-5-4s5s4-2s4s2-0-|
E|---------------------------------------------------------|


E                         G          Bm              F#m
    En esos tiempos donde nadie dice nada y todos hablan

Estos tiempos que van como a mil...

e|-3-3-2-2-3-3-2-2-3-2-------------------3-3-2-2-3-3-2-2-3-2---
B|--------------------3-3-2-2-3-3-2-2-3-2----------------------
G|-------------------------------------------------------------
D|-------------------------------------------------------------
A|-------------------------------------------------------------
E|-------------------------------------------------------------

-------------------------------------------------------------
-9-9-9-7-7-7-5-5-5-3-3-3-2-2-2--9-9-9-7-7-7-5-5-5-3-3-3-2-2-2
-------------------------------------------------------------
-------------------------------------------------------------
-------------------------------------------------------------
-------------------------------------------------------------


           D        E    F#m    A  B|-10s12s10-|  e|-9s10s9-|
Con mi canción de amor normal,
                  D     E     F#m    A  B|-10s12s10-|  e|-9s10s9-|
Tapando el hueco que dejaste acá
              D              E          F#m     A  B|-10s12s10-| e|-9s10s9-|
Será que no quiero dar la vuelta sin tus ojos
                   Bm         A         E     e|-10-9-7-|
Por eso es que me pierdo intentando despertar
             A
Algo mío en vos

                   Bm         A         E     e|-10-9-7-|
Por eso es que me pierdo intentando despertar

                   Bm         A         E     e|-10-9-7-|
Por eso es que me pierdo intentando despertar
             A
Algo mio en vos  algo mio en vos  algo mio en vos

e|---------------------------------------------|
B|---------------------------------------------|
G|---------------------------------------------|
D|-7-6-7--7-6-7---7-6-7-9-7-6-7---7-6-7-6-4-2-0|
A|---------------------------------------------|
E|---------------------------------------------|

e|-------------------------------------|
B|-------------------------------------|
G|-------------------------------------|
D|-------------------------------------|
A|------5-7--------------5-7-----------|
E|-5-7-9---9-7-5-5--5-7-9---9-7-5-5----|
Suggest correction
Give kudos to tab author, rate the tab!
1 2 3 4 5
comments
print report bad tab
guest
You may want to rate the tab now too:
select rating
Wanna post a correction for this tab? Suggest correction